  0
SECTION
  2
HEADER
  9
$ACADVER
  1
AC1009
  9
$INSBASE
 10
0.0
 20
0.0
 30
0.0
  9
$EXTMIN
 10
-0.125
 20
-0.125
 30
0.0
  9
$EXTMAX
 10
5647.4996821247332
 20
5464.1568635598842
 30
0.0
  9
$LIMMIN
 10
0.0
 20
0.0
  9
$LIMMAX
 10
3150.0
 20
4455.0
  9
$ORTHOMODE
 70
     0
  9
$REGENMODE
 70
     1
  9
$FILLMODE
 70
     1
  9
$QTEXTMODE
 70
     0
  9
$MIRRTEXT
 70
     0
  9
$DRAGMODE
 70
     2
  9
$LTSCALE
 40
120.0
  9
$OSMODE
 70
   623
  9
$ATTMODE
 70
     1
  9
$TEXTSIZE
 40
45.0
  9
$TRACEWID
 40
0.05
  9
$TEXTSTYLE
  7
STANDARD
  9
$CLAYER
  8
0
  9
$CELTYPE
  6
BYLAYER
  9
$CECOLOR
 62
   256
  9
$DIMSCALE
 40
15.0
  9
$DIMASZ
 40
2.0
  9
$DIMEXO
 40
1.0
  9
$DIMDLI
 40
7.0
  9
$DIMRND
 40
0.0
  9
$DIMDLE
 40
0.0
  9
$DIMEXE
 40
1.8
  9
$DIMTP
 40
0.0
  9
$DIMTM
 40
0.000000001
  9
$DIMTXT
 40
3.0
  9
$DIMCEN
 40
1.0
  9
$DIMTSZ
 40
0.0
  9
$DIMTOL
 70
     0
  9
$DIMLIM
 70
     0
  9
$DIMTIH
 70
     0
  9
$DIMTOH
 70
     0
  9
$DIMSE1
 70
     0
  9
$DIMSE2
 70
     0
  9
$DIMTAD
 70
     3
  9
$DIMZIN
 70
     9
  9
$DIMBLK
  1
OPEN30
  9
$DIMASO
 70
     1
  9
$DIMSHO
 70
     1
  9
$DIMPOST
  1

  9
$DIMAPOST
  1
"
  9
$DIMALT
 70
     0
  9
$DIMALTD
 70
     2
  9
$DIMALTF
 40
0.0393701
  9
$DIMLFAC
 40
1.0
  9
$DIMTOFL
 70
     1
  9
$DIMTVP
 40
0.0
  9
$DIMTIX
 70
     0
  9
$DIMSOXD
 70
     0
  9
$DIMSAH
 70
     0
  9
$DIMBLK1
  1

  9
$DIMBLK2
  1

  9
$DIMSTYLE
  2
AM_JIS
  9
$DIMCLRD
 70
   256
  9
$DIMCLRE
 70
   256
  9
$DIMCLRT
 70
     4
  9
$DIMTFAC
 40
0.71
  9
$DIMGAP
 40
1.5
  9
$LUNITS
 70
     2
  9
$LUPREC
 70
     2
  9
$SKETCHINC
 40
0.1
  9
$FILLETRAD
 40
20.0
  9
$AUNITS
 70
     0
  9
$AUPREC
 70
     2
  9
$MENU
  1
amecex
  9
$ELEVATION
 40
0.0
  9
$PELEVATION
 40
0.0
  9
$THICKNESS
 40
0.0
  9
$LIMCHECK
 70
     0
  9
$BLIPMODE
 70
     0
  9
$CHAMFERA
 40
37.5
  9
$CHAMFERB
 40
37.5
  9
$SKPOLY
 70
     0
  9
$TDCREATE
 40
2452790.5000189808
  9
$TDUPDATE
 40
2457906.8019562042
  9
$TDINDWG
 40
1.3303489005
  9
$TDUSRTIMER
 40
1.3303489005
  9
$USRTIMER
 70
     1
  9
$ANGBASE
 50
0.0
  9
$ANGDIR
 70
     0
  9
$PDMODE
 70
     0
  9
$PDSIZE
 40
0.0
  9
$PLINEWID
 40
0.0
  9
$COORDS
 70
     2
  9
$SPLFRAME
 70
     0
  9
$SPLINETYPE
 70
     6
  9
$SPLINESEGS
 70
     8
  9
$ATTDIA
 70
     1
  9
$ATTREQ
 70
     1
  9
$HANDLING
 70
     1
  9
$HANDSEED
  5
A120
  9
$SURFTAB1
 70
     6
  9
$SURFTAB2
 70
     6
  9
$SURFTYPE
 70
     6
  9
$SURFU
 70
     6
  9
$SURFV
 70
     6
  9
$UCSNAME
  2

  9
$UCSORG
 10
0.0
 20
0.0
 30
0.0
  9
$UCSXDIR
 10
1.0
 20
0.0
 30
0.0
  9
$UCSYDIR
 10
0.0
 20
1.0
 30
0.0
  9
$PUCSNAME
  2

  9
$PUCSORG
 10
0.0
 20
0.0
 30
0.0
  9
$PUCSXDIR
 10
1.0
 20
0.0
 30
0.0
  9
$PUCSYDIR
 10
0.0
 20
1.0
 30
0.0
  9
$USERI1
 70
     0
  9
$USERI2
 70
     0
  9
$USERI3
 70
     0
  9
$USERI4
 70
     0
  9
$USERI5
 70
     0
  9
$USERR1
 40
30.0
  9
$USERR2
 40
0.0
  9
$USERR3
 40
0.0
  9
$USERR4
 40
0.0
  9
$USERR5
 40
0.0
  9
$WORLDVIEW
 70
     1
  9
$SHADEDGE
 70
     3
  9
$SHADEDIF
 70
    70
  9
$TILEMODE
 70
     1
  9
$MAXACTVP
 70
    16
  9
$PLIMCHECK
 70
     0
  9
$PEXTMIN
 10
0.0
 20
0.0
 30
0.0
  9
$PEXTMAX
 10
0.0
 20
0.0
 30
0.0
  9
$PLIMMIN
 10
0.0
 20
0.0
  9
$PLIMMAX
 10
0.0
 20
0.0
  9
$UNITMODE
 70
     0
  9
$VISRETAIN
 70
     0
  9
$PLINEGEN
 70
     0
  9
$PSLTSCALE
 70
     0
  0
ENDSEC
  0
SECTION
  2
TABLES
  0
TABLE
  2
VPORT
 70
     1
  0
VPORT
  2
*ACTIVE
 70
     0
 10
0.0
 20
0.0
 11
1.0
 21
1.0
 12
3897.8915319951511
 22
2201.990173319517
 13
0.0
 23
0.0
 14
37.5
 24
37.5
 15
150.0
 25
150.0
 16
0.0
 26
0.0
 36
1.0
 17
0.0
 27
0.0
 37
0.0
 40
7538.2636929791561
 41
2.0313315926892952
 42
50.0
 43
0.0
 44
0.0
 50
0.0
 51
0.0
 71
     0
 72
   100
 73
     1
 74
     1
 75
     0
 76
     0
 77
     0
 78
     0
  0
ENDTAB
  0
TABLE
  2
LTYPE
 70
    23
  0
LTYPE
  2
CONTINUOUS
 70
     0
  3
実線
 72
    65
 73
     0
 40
0.0
  0
LTYPE
  2
HIDDEN
 70
     0
  3
Hidden __ __ __ __ __ __ __ __ __ __ __ __ __ _
 72
    65
 73
     2
 40
9.5249999999999986
 49
6.3499999999999988
 49
-3.1749999999999989
  0
LTYPE
  2
DASHDOT
 70
     0
  3
__ . __ . __ . __ . __ . __ . __ . __ . __ . __
 72
    65
 73
     4
 40
1.0
 49
0.5
 49
-0.25
 49
0.0
 49
-0.25
  0
LTYPE
  2
CENTER
 70
     0
  3
Center ____ _ ____ _ ____ _ ____ _ ____ _ ____
 72
    65
 73
     4
 40
50.799999999999997
 49
31.75
 49
-6.3499999999999988
 49
6.3499999999999988
 49
-6.3499999999999988
  0
LTYPE
  2
DOT
 70
     0
  3
...............................................
 72
    65
 73
     2
 40
0.25
 49
0.0
 49
-0.25
  0
LTYPE
  2
DASHED
 70
     0
  3
__ __ __ __ __ __ __ __ __ __ __ __ __ __ __
 72
    65
 73
     2
 40
0.75
 49
0.5
 49
-0.25
  0
LTYPE
  2
PHANTOM
 70
     0
  3
______  __  __  ______  __  __  ______  __  __ 
 72
    65
 73
     6
 40
2.5
 49
1.25
 49
-0.25
 49
0.25
 49
-0.25
 49
0.25
 49
-0.25
  0
LTYPE
  2
PHANTOM2
 70
     0
  3
Phantom (.5x) ___ _ _ ___ _ _ ___ _ _ ___ _ _
 72
    65
 73
     6
 40
31.75
 49
15.875
 49
-3.1749999999999989
 49
3.1749999999999989
 49
-3.1749999999999989
 49
3.1749999999999989
 49
-3.1749999999999989
  0
LTYPE
  2
AMCONSTR
 70
     0
  3
_______________________
 72
    65
 73
     2
 40
9999.0
 49
9999.0
 49
0.0
  0
LTYPE
  2
AM_ISO02W050
 70
     0
  3
__ __ __ __ __ __ __ __ __ __ __ __ __ __ __
 72
    65
 73
     2
 40
7.5
 49
6.0
 49
-1.5
  0
LTYPE
  2
AM_ISO08W050X2
 70
     0
  3
__ . __ . __ . __ . __ . __
 72
    65
 73
     4
 40
9.0
 49
6.0
 49
-0.75
 49
1.5
 49
-0.75
  0
LTYPE
  2
AM_ISO02W050X2
 70
     0
  3
 _ _ _ _ _ _ _ _ _ _ _ _
 72
    65
 73
     2
 40
3.75
 49
3.0
 49
-0.75
  0
LTYPE
  2
AM_ISO08W050
 70
     0
  3
____ . ____ . ____ . ____ . ____ . ____ . ____
 72
    65
 73
     4
 40
18.0
 49
12.0
 49
-1.5
 49
3.0
 49
-1.5
  0
LTYPE
  2
AMZIGZAG
 70
     0
  3
/\/-/\/-/\/-/\/-/\/-/\/
 72
    65
 73
     2
 40
11.0001
 49
0.0001
 49
-11.0
  0
LTYPE
  2
ACJISWELD
 70
     0
  3
_ _ _ _ _
 72
    65
 73
     2
 40
2.0
 49
2.0
 49
-1.0
  0
LTYPE
  2
ACJISTGL
 70
     0
  3
_ _ _ _ _
 72
    65
 73
     2
 40
3.0
 49
2.0
 49
-1.0
  0
LTYPE
  2
ACJISTGB
 70
     0
  3
__ . . __ . .
 72
    65
 73
     6
 40
9.0
 49
4.0
 49
-1.0
 49
1.0
 49
-1.0
 49
1.0
 49
-1.0
  0
LTYPE
  2
AM_ISO09W050
 70
     0
  3
_____ . . _____ . . _____ . . ____ .. ____
 72
    65
 73
     6
 40
22.5
 49
12.0
 49
-1.5
 49
3.0
 49
-1.5
 49
3.0
 49
-1.5
  0
LTYPE
  2
CENTER2
 70
     0
  3
Center (.5x) ___ _ ___ _ ___ _ ___ _ ___ _ ___
 72
    65
 73
     4
 40
1.125
 49
0.75
 49
-0.125
 49
0.125
 49
-0.125
  0
LTYPE
  2
HIDDEN2
 70
     0
  3
Hidden (.5x) _ _ _ _ _ _ _ _ _ _ _ _ _ _ _ _ _
 72
    65
 73
     2
 40
0.1875
 49
0.125
 49
-0.0625
  0
LTYPE
  2
AMZIGZAG2
 70
     0
  3
/\/-/\/-/\/-/\/-/\/-/\/
 72
    65
 73
     2
 40
0.4401
 49
0.0001
 49
-0.4400000000000001
  0
LTYPE
  2
ACANSTGB
 70
     0
  3
__ . . __ . .
 72
    65
 73
     6
 40
0.35433070866
 49
0.15748031496
 49
-0.03937007874
 49
0.03937007874
 49
-0.03937007874
 49
0.03937007874
 49
-0.03937007874
  0
LTYPE
  2
ACANSTGL
 70
     0
  3
_ _ _ _ _
 72
    65
 73
     2
 40
0.11811023622
 49
0.07874015748
 49
-0.03937007874
  0
ENDTAB
  0
TABLE
  2
LAYER
 70
    26
  0
LAYER
  2
0
 70
     0
 62
     7
  6
CONTINUOUS
  0
LAYER
  2
1
 70
     0
 62
     4
  6
CONTINUOUS
  0
LAYER
  2
HIDDEN
 70
     0
 62
     4
  6
HIDDEN
  0
LAYER
  2
CENTER
 70
     0
 62
     1
  6
CENTER
  0
LAYER
  2
GAWA
 70
     0
 62
     2
  6
CONTINUOUS
  0
LAYER
  2
HOJYO
 70
     0
 62
     6
  6
CONTINUOUS
  0
LAYER
  2
SCALE
 70
     0
 62
     4
  6
CONTINUOUS
  0
LAYER
  2
UL1
 70
     0
 62
     3
  6
CONTINUOUS
  0
LAYER
  2
UL2
 70
     0
 62
     7
  6
CONTINUOUS
  0
LAYER
  2
UL3
 70
     0
 62
     7
  6
CONTINUOUS
  0
LAYER
  2
UL4
 70
     0
 62
     7
  6
CONTINUOUS
  0
LAYER
  2
UL5
 70
     0
 62
     7
  6
CONTINUOUS
  0
LAYER
  2
UL6
 70
     0
 62
     7
  6
CONTINUOUS
  0
LAYER
  2
UL7
 70
     0
 62
     7
  6
CONTINUOUS
  0
LAYER
  2
KARISEN
 70
     0
 62
     5
  6
DASHED
  0
LAYER
  2
HOJYO2
 70
     0
 62
     6
  6
HIDDEN
  0
LAYER
  2
ERROR
 70
     0
 62
     1
  6
HIDDEN
  0
LAYER
  2
DEFPOINTS
 70
     1
 62
     7
  6
CONTINUOUS
  0
LAYER
  2
UL10
 70
     0
 62
     4
  6
HIDDEN
  0
LAYER
  2
UL11
 70
     0
 62
     4
  6
CONTINUOUS
  0
LAYER
  2
UL12
 70
     0
 62
     7
  6
CONTINUOUS
  0
LAYER
  2
AM_0
 70
     0
 62
     7
  6
CONTINUOUS
  0
LAYER
  2
AM_CL_CONSTLINE
 70
     0
 62
     6
  6
AMCONSTR
  0
LAYER
  2
AM_5_SCALE
 70
     0
 62
     4
  6
CONTINUOUS
  0
LAYER
  2
AM_5
 70
     0
 62
     3
  6
CONTINUOUS
  0
LAYER
  2
AM_BOR_GAWA
 70
     0
 62
     2
  6
CONTINUOUS
  0
ENDTAB
  0
TABLE
  2
STYLE
 70
    16
  0
STYLE
  2
STANDARD
 70
     0
 40
0.0
 41
1.0
 50
0.0
 71
     0
 42
45.0
  3
txt.shx
  4
extfont2.shx
  0
STYLE
  2
SMP-SET
 70
     0
 40
0.0
 41
1.0
 50
0.0
 71
     0
 42
0.2
  3
SIMPLEX
  4
BIGFONT
  0
STYLE
  2
CMP-SET
 70
     0
 40
0.0
 41
1.0
 50
0.0
 71
     0
 42
0.2
  3
COMPLEX
  4
BIGFONT
  0
STYLE
  2
ITL-SET
 70
     0
 40
0.0
 41
1.0
 50
0.0
 71
     0
 42
0.2
  3
ITALIC
  4
BIGFONT
  0
STYLE
  2
MONO-SET
 70
     0
 40
0.0
 41
1.0
 50
0.0
 71
     0
 42
0.2
  3
MONOTXT
  4
BIGFONT
  0
STYLE
  2
SIMPLEX
 70
     0
 40
0.0
 41
1.0
 50
0.0
 71
     0
 42
0.2
  3
SIMPLEX
  4

  0
STYLE
  2

 70
     1
 40
0.0
 41
1.0
 50
0.0
 71
     0
 42
2.5
  3
genltshp.shx
  4
extfont2.shx
  0
STYLE
  2
ACJISGDT
 70
     0
 40
0.0
 41
1.0
 50
0.0
 71
     0
 42
2.5
  3
amgdt.shx
  4
extfont2.shx
  0
STYLE
  2
ANNOTATIVE
 70
     0
 40
0.0
 41
1.0
 50
0.0
 71
     0
 42
2.5
  3
txt
  4

  0
STYLE
  2
ACISOTS
 70
     0
 40
0.0
 41
1.0
 50
0.0
 71
     0
 42
2.5
  3
isocp.shx
  4
extfont2.shx
  0
STYLE
  2
ACISOGDT
 70
     0
 40
0.0
 41
1.0
 50
0.0
 71
     0
 42
2.5
  3
amgdt.shx
  4
extfont2.shx
  0
STYLE
  2
ACJISTS
 70
     0
 40
0.0
 41
1.0
 50
0.0
 71
     0
 42
2.5
  3
isocp.shx
  4
extfont2.shx
  0
STYLE
  2
USER1
 70
     0
 40
0.0
 41
1.0
 50
0.0
 71
     0
 42
2.5
  3
TXT.SHX
  4
extfont2.shx
  0
STYLE
  2
USER2
 70
     0
 40
0.0
 41
1.0
 50
0.0
 71
     0
 42
2.5
  3
SIMPLEX.SHX
  4
extfont2.shx
  0
STYLE
  2
USER3
 70
     0
 40
0.0
 41
1.0
 50
0.0
 71
     0
 42
2.5
  3
ITALIC.SHX
  4
extfont2.shx
  0
STYLE
  2
ACANSGDT
 70
     0
 40
0.0
 41
1.0
 50
0.0
 71
     0
 42
50.0
  3
amgdt.shx
  4

  0
ENDTAB
  0
TABLE
  2
VIEW
 70
     0
  0
ENDTAB
  0
TABLE
  2
UCS
 70
     0
  0
ENDTAB
  0
TABLE
  2
APPID
 70
    64
  0
APPID
  2
ACAD
 70
     0
  0
APPID
  2
ACE-LT__COPYRIGHT_TRIALSOFT-JPN
 70
     0
  0
APPID
  2
MCAD_NO_VIS
 70
     0
  0
APPID
  2
ACAD_TEMP_GRAPHIC
 70
     0
  0
APPID
  2
ACAD_PSEXT
 70
     0
  0
APPID
  2
ACADANNOPO
 70
     0
  0
APPID
  2
ACADANNOTATIVE
 70
     0
  0
APPID
  2
ACAD_DSTYLE_DIMJAG
 70
     0
  0
APPID
  2
ACAD_DSTYLE_DIMTALN
 70
     0
  0
APPID
  2
ACAD_MLEADERVER
 70
     0
  0
APPID
  2
ACAD_NAV_VCDISPLAY
 70
     0
  0
APPID
  2
ACATTRIBSERVICES
 70
     0
  0
APPID
  2
DESIGNERASSEMBLIES
 70
     0
  0
APPID
  2
ACAD_DSTYLE_DIMBREAK
 70
     0
  0
APPID
  2
ACAECLAYERSTANDARD
 70
     0
  0
APPID
  2
AD_DRAW
 70
     0
  0
APPID
  2
ACADM_DIM_EDIT
 70
     0
  0
APPID
  2
AMDT_DM_ADJ
 70
     0
  0
APPID
  2
ACAD_DSTYLE_DIMARC_LENGTH_
 70
     0
  0
APPID
  2
ACAD_DSTYLE_DIMJOGGED_JOGA
 70
     0
  0
APPID
  2
ACAD_EXEMPT_FROM_CAD_STANDARDS
 70
     0
  0
APPID
  2
GENIUS_GENREC_14
 70
     0
  0
APPID
  2
GENIUS_GENODEF_13
 70
     0
  0
APPID
  2
GENIUS_GENOBJ-N-REC_13
 70
     0
  0
APPID
  2
GEVID1362489746
 70
     0
  0
APPID
  2
GENIUS_GENBH_13
 70
     0
  0
APPID
  2
GENIUS_GENOENT_13
 70
     0
  0
APPID
  2
GENIUS_GENOLIS_13
 70
     0
  0
APPID
  2
GENIUS_GENOBJ-NBEHI-BHF_13
 70
     0
  0
APPID
  2
GENIUS_GENOREF_13
 70
     0
  0
APPID
  2
GENIUS_GENOBJ-NBEHI-BHB_13
 70
     0
  0
APPID
  2
GEVID1362489747
 70
     0
  0
APPID
  2
ACM_PP_DIM_CONSTRAINT
 70
     0
  0
APPID
  2
ACM_PP_ASSOCVAR
 70
     0
  0
APPID
  2
ACM_PP_DIM_ACTION_MACRO
 70
     0
  0
APPID
  2
ACM_PP_DIM_CONSTRAINT_DRAG_GRIP
 70
     0
  0
APPID
  2
GEVID1362489748
 70
     0
  0
APPID
  2
GENIUS_GENDTOL_13
 70
     0
  0
APPID
  2
ACAD_DSTYLE_DIMINSPECT
 70
     0
  0
APPID
  2
ACADANNOMONITORALERTICONDI
 70
     0
  0
APPID
  2
ACAUTHENVIRON
 70
     0
  0
APPID
  2
ACDBDYNAMICBLOCKTRUENAME
 70
     0
  0
APPID
  2
ACDBDYNAMICBLOCKGUID
 70
     0
  0
APPID
  2
GENIUS_GENSCREG_15
 70
     0
  0
APPID
  2
GENIUS_GENOBJ-N-SDF_13
 70
     0
  0
APPID
  2
GENIUS_GENFIL_13
 70
     0
  0
APPID
  2
GENIUS_GENOBJ-N-CHA_13
 70
     0
  0
APPID
  2
GENIUS_GENOBJ-N-FIL_13
 70
     0
  0
APPID
  2
ACAD_DSTYLE_DIMRADIAL_EXTENSION
 70
     0
  0
APPID
  2
ACADSTRINGINFO
 70
     0
  0
APPID
  2
AMG_2DHIDE
 70
     0
  0
APPID
  2
AMG_2DSTRUCT_BTR
 70
     0
  0
APPID
  2
GENIUS_GENOBJ-N-DIM_13
 70
     0
  0
APPID
  2
GENIUS_GENDIM_13
 70
     0
  0
APPID
  2
GENIUS_GENDIMSH_14
 70
     0
  0
APPID
  2
GENIUS_GENOBJ-N-CEN_13
 70
     0
  0
APPID
  2
GENIUS_GENCEN_19
 70
     0
  0
APPID
  2
GENIUS_GENOBJ-N-CRS_13
 70
     0
  0
APPID
  2
GENIUS_GENCRS_20
 70
     0
  0
APPID
  2
GRADIENTCOLOR1ACI
 70
     0
  0
APPID
  2
GRADIENTCOLOR2ACI
 70
     0
  0
APPID
  2
GENIUS_GENTRA_14
 70
     0
  0
APPID
  2
CONTENTBLOCKICON
 70
     0
  0
APPID
  2
AcDbAttr
 70
     0
  0
ENDTAB
  0
TABLE
  2
DIMSTYLE
 70
    28
  0
DIMSTYLE
  2
DOT1
 70
     0
  3

  4

  5
DOT1
  6
DOT1
  7
DOT1
 40
15.0
 41
2.0
 42
0.1
 43
7.0
 44
1.8
 45
0.0
 46
0.0
 47
0.0
 48
0.0
140
3.0
141
0.1
142
0.0
143
25.399999999999999
144
1.0
145
1.0
146
1.0
147
0.0
 71
     0
 72
     0
 73
     0
 74
     0
 75
     0
 76
     0
 77
     0
 78
     9
170
     0
171
     2
172
     1
173
     1
174
     0
175
     0
176
   256
177
   256
178
   256
  0
DIMSTYLE
  2
YAZ3
 70
     0
  3

  4

  5
OPEN30
  6
OPEN30
  7
YAZ3
 40
15.0
 41
2.0
 42
0.1
 43
7.0
 44
1.8
 45
0.0
 46
0.0
 47
0.0
 48
0.0
140
3.0
141
0.1
142
0.0
143
25.399999999999999
144
1.0
145
1.0
146
1.0
147
0.0
 71
     0
 72
     0
 73
     0
 74
     0
 75
     0
 76
     0
 77
     0
 78
     9
170
     0
171
     2
172
     1
173
     0
174
     0
175
     0
176
   256
177
   256
178
   256
  0
DIMSTYLE
  2
YAZ1
 70
     0
  3

  4

  5

  6
YAZ1
  7
YAZ1
 40
15.0
 41
2.0
 42
0.1
 43
7.0
 44
1.8
 45
0.0
 46
0.0
 47
0.0
 48
0.0
140
4.7999999999999989
141
0.1
142
0.0
143
25.399999999999999
144
1.0
145
1.0
146
1.0
147
0.0
 71
     0
 72
     0
 73
     0
 74
     0
 75
     0
 76
     0
 77
     0
 78
     9
170
     0
171
     2
172
     1
173
     1
174
     0
175
     0
176
   256
177
   256
178
   256
  0
DIMSTYLE
  2
YAZ1$3
 70
     0
  3

  4

  5

  6
YAZ1
  7
YAZ1
 40
15.0
 41
2.0
 42
0.1
 43
7.0
 44
1.8
 45
0.0
 46
0.0
 47
0.0
 48
0.0
140
4.7999999999999989
141
0.1
142
0.0
143
25.399999999999999
144
1.0
145
1.0
146
1.0
147
0.09
 71
     0
 72
     0
 73
     0
 74
     0
 75
     0
 76
     0
 77
     0
 78
     9
170
     0
171
     2
172
     1
173
     1
174
     1
175
     0
176
   256
177
   256
178
   256
  0
DIMSTYLE
  2
YAZ1$4
 70
     0
  3

  4

  5

  6
YAZ1
  7
YAZ1
 40
15.0
 41
2.0
 42
0.1
 43
7.0
 44
1.8
 45
0.0
 46
0.0
 47
0.0
 48
0.0
140
4.7999999999999989
141
0.1
142
0.0
143
25.399999999999999
144
1.0
145
1.0
146
1.0
147
0.09
 71
     0
 72
     0
 73
     0
 74
     0
 75
     0
 76
     0
 77
     0
 78
     9
170
     0
171
     2
172
     1
173
     1
174
     1
175
     0
176
   256
177
   256
178
   256
  0
DIMSTYLE
  2
DOT1$3
 70
     0
  3

  4

  5
DOT1
  6
DOT1
  7
DOT1
 40
15.0
 41
2.0
 42
0.1
 43
7.0
 44
1.8
 45
0.0
 46
0.0
 47
0.0
 48
0.0
140
3.0
141
0.1
142
0.0
143
25.399999999999999
144
1.0
145
1.0
146
1.0
147
0.09
 71
     0
 72
     0
 73
     0
 74
     0
 75
     0
 76
     0
 77
     0
 78
     9
170
     0
171
     2
172
     1
173
     1
174
     1
175
     0
176
   256
177
   256
178
   256
  0
DIMSTYLE
  2
DOT1$4
 70
     0
  3

  4

  5
DOT1
  6
DOT1
  7
DOT1
 40
15.0
 41
2.0
 42
0.1
 43
7.0
 44
1.8
 45
0.0
 46
0.0
 47
0.0
 48
0.0
140
3.0
141
0.1
142
0.0
143
25.399999999999999
144
1.0
145
1.0
146
1.0
147
0.09
 71
     0
 72
     0
 73
     0
 74
     0
 75
     0
 76
     0
 77
     0
 78
     9
170
     0
171
     2
172
     1
173
     1
174
     1
175
     0
176
   256
177
   256
178
   256
  0
DIMSTYLE
  2
YAZ3$3
 70
     0
  3

  4

  5
OPEN30
  6
OPEN30
  7
YAZ3
 40
15.0
 41
2.0
 42
0.1
 43
7.0
 44
1.8
 45
0.0
 46
0.0
 47
0.0
 48
0.0
140
3.0
141
0.1
142
0.0
143
25.399999999999999
144
1.0
145
1.0
146
1.0
147
0.09
 71
     0
 72
     0
 73
     0
 74
     0
 75
     0
 76
     0
 77
     0
 78
     9
170
     0
171
     2
172
     1
173
     0
174
     1
175
     0
176
   256
177
   256
178
   256
  0
DIMSTYLE
  2
YAZ3$4
 70
     0
  3

  4

  5
OPEN30
  6
OPEN30
  7
YAZ3
 40
15.0
 41
2.0
 42
0.1
 43
7.0
 44
1.8
 45
0.0
 46
0.0
 47
0.0
 48
0.0
140
3.0
141
0.1
142
0.0
143
25.399999999999999
144
1.0
145
1.0
146
1.0
147
0.09
 71
     0
 72
     0
 73
     0
 74
     0
 75
     0
 76
     0
 77
     0
 78
     9
170
     0
171
     2
172
     1
173
     0
174
     1
175
     0
176
   256
177
   256
178
   256
  0
DIMSTYLE
  2
STANDARD
 70
     0
  3

  4

  5

  6

  7

 40
1.0
 41
0.18
 42
0.0625
 43
0.38
 44
0.18
 45
0.0
 46
0.0
 47
0.0
 48
0.0
140
0.18
141
0.09
142
0.0
143
25.399999999999999
144
1.0
145
0.0
146
1.0
147
0.09
 71
     0
 72
     0
 73
     1
 74
     1
 75
     0
 76
     0
 77
     0
 78
     0
170
     0
171
     2
172
     0
173
     0
174
     0
175
     0
176
     0
177
     0
178
     0
  0
DIMSTYLE
  2
YAZ1$0
 70
     0
  3

  4

  5

  6
YAZ1
  7
YAZ1
 40
10.0
 41
2.0
 42
0.1
 43
5.0
 44
1.8
 45
0.0
 46
0.0
 47
0.0
 48
0.0
140
4.7999999999999989
141
0.1
142
0.0
143
25.399999999999999
144
1.0
145
1.0
146
1.0
147
0.0
 71
     0
 72
     0
 73
     0
 74
     0
 75
     0
 76
     0
 77
     0
 78
     9
170
     0
171
     2
172
     1
173
     1
174
     0
175
     0
176
   256
177
   256
178
   256
  0
DIMSTYLE
  2
AM_JIS
 70
     0
  3

  4
"
  5
OPEN30
  6

  7

 40
15.0
 41
2.0
 42
1.0
 43
7.0
 44
1.8
 45
0.0
 46
0.0
 47
0.0
 48
0.000000001
140
3.0
141
1.0
142
0.0
143
0.0393701
144
1.0
145
0.0
146
0.71
147
1.5
 71
     0
 72
     0
 73
     0
 74
     0
 75
     0
 76
     0
 77
     3
 78
     9
170
     0
171
     2
172
     1
173
     0
174
     0
175
     0
176
   256
177
   256
178
     4
  0
DIMSTYLE
  2
AM_JIS$0
 70
     0
  3

  4
"
  5
OPEN30
  6

  7

 40
15.0
 41
2.0
 42
1.0
 43
7.0
 44
1.8
 45
0.0
 46
0.0
 47
0.0
 48
0.000000001
140
3.0
141
1.0
142
0.0
143
0.0393701
144
1.0
145
0.0
146
0.71
147
1.5
 71
     0
 72
     0
 73
     0
 74
     0
 75
     0
 76
     0
 77
     3
 78
     9
170
     0
171
     2
172
     1
173
     0
174
     0
175
     0
176
   256
177
   256
178
     4
  0
DIMSTYLE
  2
AM_JIS$3
 70
     0
  3

  4
"
  5
OPEN30
  6

  7

 40
15.0
 41
2.0
 42
1.0
 43
7.0
 44
1.8
 45
0.0
 46
0.0
 47
0.0
 48
0.000000001
140
3.0
141
1.0
142
0.0
143
0.0393701
144
1.0
145
0.0
146
0.71
147
1.5
 71
     0
 72
     0
 73
     0
 74
     1
 75
     0
 76
     0
 77
     3
 78
     9
170
     0
171
     2
172
     0
173
     0
174
     0
175
     0
176
   256
177
   256
178
     4
  0
DIMSTYLE
  2
AM_JIS$4
 70
     0
  3

  4
"
  5
OPEN30
  6

  7

 40
15.0
 41
2.0
 42
1.0
 43
7.0
 44
1.8
 45
0.0
 46
0.0
 47
0.0
 48
0.000000001
140
3.0
141
1.0
142
0.0
143
0.0393701
144
1.0
145
0.0
146
0.71
147
1.5
 71
     0
 72
     0
 73
     0
 74
     0
 75
     0
 76
     0
 77
     3
 78
     9
170
     0
171
     2
172
     1
173
     0
174
     0
175
     0
176
   256
177
   256
178
     4
  0
DIMSTYLE
  2
AM_JIS$6
 70
     0
  3

  4
"
  5
OPEN30
  6

  7

 40
15.0
 41
2.0
 42
1.0
 43
7.0
 44
1.8
 45
0.0
 46
0.0
 47
0.0
 48
0.000000001
140
3.0
141
1.0
142
0.0
143
0.0393701
144
1.0
145
0.0
146
0.71
147
1.5
 71
     0
 72
     0
 73
     0
 74
     0
 75
     0
 76
     0
 77
     0
 78
     9
170
     0
171
     2
172
     1
173
     0
174
     0
175
     0
176
   256
177
   256
178
     4
  0
DIMSTYLE
  2
AM_JIS$7
 70
     0
  3

  4
"
  5
OPEN30
  6

  7

 40
15.0
 41
2.0
 42
1.0
 43
7.0
 44
1.8
 45
0.0
 46
0.0
 47
0.0
 48
0.000000001
140
3.0
141
1.0
142
0.0
143
0.0393701
144
1.0
145
0.0
146
0.71
147
1.5
 71
     0
 72
     0
 73
     0
 74
     0
 75
     0
 76
     0
 77
     3
 78
     9
170
     0
171
     2
172
     1
173
     0
174
     0
175
     0
176
   256
177
   256
178
     4
  0
DIMSTYLE
  2
AM_JIS$SF
 70
     0
  3

  4
"
  5
OPEN30
  6

  7

 40
15.0
 41
2.0
 42
1.0
 43
7.0
 44
1.8
 45
0.0
 46
0.0
 47
0.0
 48
0.000000001
140
3.0
141
1.0
142
0.0
143
0.0393701
144
1.0
145
0.0
146
0.71
147
1.5
 71
     0
 72
     0
 73
     0
 74
     0
 75
     1
 76
     1
 77
     3
 78
     9
170
     0
171
     2
172
     1
173
     0
174
     0
175
     0
176
   256
177
   256
178
     4
  0
DIMSTYLE
  2
AM_JIS$SH
 70
     0
  3

  4
"
  5
OPEN30
  6
GENAXEH
  7

 40
15.0
 41
2.0
 42
1.0
 43
7.0
 44
1.8
 45
0.0
 46
0.0
 47
0.0
 48
0.000000001
140
3.0
141
1.0
142
0.0
143
0.0393701
144
2.0
145
0.0
146
0.71
147
1.5
 71
     0
 72
     0
 73
     0
 74
     0
 75
     1
 76
     1
 77
     3
 78
     9
170
     0
171
     2
172
     1
173
     1
174
     0
175
     0
176
   256
177
   256
178
     4
  0
DIMSTYLE
  2
AM_ANSI
 70
     0
  3

  4
mm
  5

  6

  7

 40
1.0
 41
0.12
 42
0.05
 43
0.5
 44
0.1
 45
0.0
 46
0.0
 47
0.1
 48
0.1
140
0.12
141
0.0
142
0.0
143
25.399999999999999
144
1.0
145
0.0
146
0.71
147
0.06
 71
     0
 72
     0
 73
     1
 74
     1
 75
     0
 76
     0
 77
     0
 78
     7
170
     0
171
     2
172
     0
173
     0
174
     0
175
     0
176
   256
177
   256
178
     2
  0
DIMSTYLE
  2
AM_ANSI$3
 70
     0
  3

  4
mm
  5

  6

  7

 40
1.0
 41
0.12
 42
0.05
 43
0.5
 44
0.1
 45
0.0
 46
0.0
 47
0.1
 48
0.1
140
0.12
141
0.0
142
0.0
143
25.399999999999999
144
1.0
145
0.0
146
0.71
147
0.06
 71
     0
 72
     0
 73
     1
 74
     1
 75
     0
 76
     0
 77
     0
 78
     7
170
     0
171
     2
172
     0
173
     0
174
     0
175
     0
176
   256
177
   256
178
     2
  0
DIMSTYLE
  2
AM_ANSI$4
 70
     0
  3

  4
mm
  5

  6

  7

 40
1.0
 41
0.12
 42
0.05
 43
0.5
 44
0.1
 45
0.0
 46
0.0
 47
0.1
 48
0.1
140
0.12
141
0.0
142
0.0
143
25.399999999999999
144
1.0
145
0.0
146
0.71
147
0.06
 71
     0
 72
     0
 73
     1
 74
     1
 75
     0
 76
     0
 77
     0
 78
     7
170
     0
171
     2
172
     0
173
     0
174
     0
175
     0
176
   256
177
   256
178
     2
  0
DIMSTYLE
  2
AM_ANSI$7
 70
     0
  3

  4
mm
  5

  6

  7

 40
1.0
 41
0.12
 42
0.05
 43
0.5
 44
0.1
 45
0.0
 46
0.0
 47
0.1
 48
0.1
140
0.12
141
0.0
142
0.0
143
25.399999999999999
144
1.0
145
0.0
146
0.71
147
0.06
 71
     0
 72
     0
 73
     1
 74
     1
 75
     0
 76
     0
 77
     0
 78
     7
170
     0
171
     2
172
     0
173
     0
174
     0
175
     0
176
   256
177
   256
178
     2
  0
DIMSTYLE
  2
AM_ANSI$SF
 70
     0
  3

  4
mm
  5

  6

  7

 40
1.0
 41
0.12
 42
0.05
 43
0.5
 44
0.1
 45
0.0
 46
0.0
 47
0.1
 48
0.1
140
0.12
141
0.0
142
0.0
143
25.399999999999999
144
1.0
145
0.0
146
0.71
147
0.06
 71
     0
 72
     0
 73
     1
 74
     1
 75
     1
 76
     1
 77
     0
 78
     7
170
     0
171
     2
172
     0
173
     0
174
     0
175
     0
176
   256
177
   256
178
     2
  0
DIMSTYLE
  2
AM_ANSI$SH
 70
     0
  3

  4
mm
  5

  6
GENAXEH
  7

 40
1.0
 41
0.12
 42
0.05
 43
0.5
 44
0.1
 45
0.0
 46
0.0
 47
0.1
 48
0.1
140
0.12
141
0.0
142
0.0
143
25.399999999999999
144
1.0
145
0.0
146
0.71
147
0.06
 71
     0
 72
     0
 73
     1
 74
     1
 75
     1
 76
     1
 77
     0
 78
     7
170
     0
171
     2
172
     0
173
     1
174
     0
175
     0
176
   256
177
   256
178
     2
  0
DIMSTYLE
  2
AM_ANSI$0
 70
     0
  3

  4
mm
  5

  6

  7

 40
1.0
 41
0.12
 42
0.05
 43
0.5
 44
0.1
 45
0.0
 46
0.0
 47
0.1
 48
0.1
140
0.12
141
0.0
142
0.0
143
25.399999999999999
144
1.0
145
0.0
146
0.71
147
0.06
 71
     0
 72
     0
 73
     1
 74
     1
 75
     0
 76
     0
 77
     0
 78
     7
170
     0
171
     2
172
     0
173
     0
174
     0
175
     0
176
   256
177
   256
178
     2
  0
DIMSTYLE
  2
ANNOTATIVE
 70
     0
  3

  4

  5

  6

  7

 40
1.0
 41
0.18
 42
0.0625
 43
0.38
 44
0.18
 45
0.0
 46
0.0
 47
0.0
 48
0.0
140
0.18
141
0.09
142
0.0
143
25.399999999999999
144
1.0
145
0.0
146
1.0
147
0.09
 71
     0
 72
     0
 73
     1
 74
     1
 75
     0
 76
     0
 77
     0
 78
     0
170
     0
171
     2
172
     0
173
     0
174
     0
175
     0
176
     0
177
     0
178
     0
  0
DIMSTYLE
  2
AM_JIS$2
 70
     0
  3

  4
"
  5
OPEN30
  6

  7

 40
15.0
 41
2.0
 42
1.0
 43
7.0
 44
1.8
 45
0.0
 46
0.0
 47
0.0
 48
0.000000001
140
3.0
141
1.0
142
0.0
143
0.0393701
144
1.0
145
0.0
146
0.71
147
1.5
 71
     0
 72
     0
 73
     0
 74
     0
 75
     0
 76
     0
 77
     3
 78
     9
170
     0
171
     2
172
     1
173
     0
174
     0
175
     0
176
   256
177
   256
178
     4
  0
ENDTAB
  0
ENDSEC
  0
SECTION
  2
BLOCKS
  0
BLOCK
  8
0
  2
$MODEL_SPACE
 70
     0
 10
0.0
 20
0.0
 30
0.0
  3
$MODEL_SPACE
  1

  0
ENDBLK
  5
20B
  8
0
  0
BLOCK
 67
     1
  8
0
  2
$PAPER_SPACE
 70
     0
 10
0.0
 20
0.0
 30
0.0
  3
$PAPER_SPACE
  1

  0
ENDBLK
  5
209
 67
     1
  8
0
  0
BLOCK
  8
0
  2
DOT1
 70
     0
 10
184.0
 20
131.0
 30
0.0
  3
DOT1
  1

  0
LINE
  5
51
  8
0
 10
183.0
 20
131.0
 30
0.0
 11
184.0
 21
131.0
 31
0.0
  0
POLYLINE
  5
52
  8
0
 66
     1
 10
0.0
 20
0.0
 30
0.0
 70
     1
 40
0.25
 41
0.25
  0
VERTEX
  5
A028
  8
0
 10
183.875
 20
131.0
 30
0.0
 42
1.0
  0
VERTEX
  5
A029
  8
0
 10
184.125
 20
131.0
 30
0.0
 42
1.0
  0
SEQEND
  5
A02A
  8
0
  0
ENDBLK
  5
56
  8
0
  0
BLOCK
  8
0
  2
YAZ1
 70
     0
 10
0.0
 20
0.0
 30
0.0
  3
YAZ1
  1

  0
LINE
  5
255
  8
0
 10
0.0
 20
0.0
 30
0.0
 11
-1.0
 21
-0.2679491924311037
 31
0.0
  0
LINE
  5
256
  8
0
 10
0.0
 20
0.0
 30
0.0
 11
-1.0
 21
0.2679491924311037
 31
0.0
  0
LINE
  5
257
  8
0
 10
-1.0
 20
0.0
 30
0.0
 11
0.0
 21
0.0
 31
0.0
  0
ENDBLK
  5
259
  8
0
  0
BLOCK
  8
0
  2
YAZ3
 70
     0
 10
0.0
 20
0.0
 30
0.0
  3
YAZ3
  1

  0
SOLID
  5
25C
  8
0
 10
0.0
 20
0.0
 30
0.0
 11
-1.0
 21
0.2679491924311037
 31
0.0
 12
-1.0
 22
-0.2679491924311037
 32
0.0
 13
-1.0
 23
-0.2679491924311037
 33
0.0
  0
LINE
  5
25D
  8
0
 10
0.0
 20
0.0
 30
0.0
 11
-1.0
 21
-0.2679491924311037
 31
0.0
  0
LINE
  5
25E
  8
0
 10
0.0
 20
0.0
 30
0.0
 11
-1.0
 21
0.2679491924311037
 31
0.0
  0
LINE
  5
25F
  8
0
 10
-1.0
 20
0.0
 30
0.0
 11
0.0
 21
0.0
 31
0.0
  0
ENDBLK
  5
261
  8
0
  0
BLOCK
  8
0
  2
_OPEN30
 70
     0
 10
0.0
 20
0.0
 30
0.0
  3
_OPEN30
  1

  0
LINE
  5
6134
  8
0
  6
BYBLOCK
 62
     0
 10
-1.0
 20
0.26794919
 30
0.0
 11
0.0
 21
0.0
 31
0.0
  0
LINE
  5
6135
  8
0
  6
BYBLOCK
 62
     0
 10
0.0
 20
0.0
 30
0.0
 11
-1.0
 21
-0.26794919
 31
0.0
  0
LINE
  5
6136
  8
0
  6
BYBLOCK
 62
     0
 10
0.0
 20
0.0
 30
0.0
 11
-1.0
 21
0.0
 31
0.0
  0
ENDBLK
  5
6137
  8
0
  0
BLOCK
  8
0
  2
*D4
 70
     1
 10
0.0
 20
0.0
 30
0.0
  3
*D4
  1

  0
LINE
  5
9ED4
  8
SCALE
 10
1109.4506930703569
 20
2742.1778740979048
 30
0.0
 11
579.17738836775186
 21
2742.1778740979048
 31
0.0
  0
LINE
  5
9ED5
  8
SCALE
 10
1059.92292348402
 20
3463.1778740979048
 30
0.0
 11
579.1773883677522
 21
3463.1778740979062
 31
0.0
  0
LINE
  5
9ED6
  8
SCALE
 10
606.17738836775197
 20
2772.1778740979048
 30
0.0
 11
606.17738836775209
 21
3433.1778740979062
 31
0.0
  0
INSERT
  5
9ED7
  8
SCALE
  2
_OPEN30
 10
606.17738836775197
 20
2742.1778740979048
 30
0.0
 41
30.0
 42
30.0
 43
30.0
 50
270.0
  0
INSERT
  5
9ED8
  8
SCALE
  2
_OPEN30
 10
606.17738836775209
 20
3463.1778740979062
 30
0.0
 41
30.0
 42
30.0
 43
30.0
 50
90.0
  0
INSERT
  5
9ED9
  8
0
  2
*U67
 10
0.0
 20
0.0
 30
0.0
  0
POINT
  5
9EDA
  8
DEFPOINTS
 62
     0
 10
1110.9506930703569
 20
2742.1778740979048
 30
0.0
  0
POINT
  5
9EDB
  8
DEFPOINTS
 62
     0
 10
1061.42292348402
 20
3463.1778740979048
 30
0.0
  0
POINT
  5
9EDC
  8
DEFPOINTS
 62
     0
 10
606.17738836775209
 20
3463.1778740979062
 30
0.0
  0
ENDBLK
  5
448E
  8
0
  0
BLOCK
  8
0
  2
*D5
 70
     1
 10
0.0
 20
0.0
 30
0.0
  3
*D5
  1

  0
LINE
  5
8810
  8
HOJYO
 10
3626.6743716038259
 20
2684.1562679187468
 30
0.0
 11
3280.3607686524078
 21
2684.1562679187468
 31
0.0
  0
LINE
  5
8811
  8
HOJYO
 10
3626.6743716038259
 20
3449.1562679187468
 30
0.0
 11
3280.3607686524078
 21
3449.1562679187468
 31
0.0
  0
LINE
  5
8812
  8
HOJYO
 10
3307.3607686524078
 20
2714.1562679187482
 30
0.0
 11
3307.3607686524078
 21
3419.1562679187482
 31
0.0
  0
INSERT
  5
8813
  8
HOJYO
  2
_OPEN30
 10
3307.3607686524078
 20
2684.1562679187468
 30
0.0
 41
30.0
 42
30.0
 43
30.0
 50
270.0
  0
INSERT
  5
8814
  8
HOJYO
  2
_OPEN30
 10
3307.3607686524078
 20
3449.1562679187468
 30
0.0
 41
30.0
 42
30.0
 43
30.0
 50
90.0
  0
INSERT
  5
8815
  8
0
  2
*U43
 10
0.0
 20
0.0
 30
0.0
  0
POINT
  5
8816
  8
DEFPOINTS
 62
     0
 10
3628.1743716038259
 20
2684.1562679187468
 30
0.0
  0
POINT
  5
8817
  8
DEFPOINTS
 62
     0
 10
3628.1743716038259
 20
3449.1562679187468
 30
0.0
  0
POINT
  5
8818
  8
DEFPOINTS
 62
     0
 10
3307.3607686524078
 20
3449.1562679187468
 30
0.0
  0
ENDBLK
  5
44AC
  8
0
  0
BLOCK
  8
0
  2
*D6
 70
     1
 10
0.0
 20
0.0
 30
0.0
  3
*D6
  1

  0
LINE
  5
8819
  8
HOJYO
 10
3628.1743716038259
 20
3450.6562679187482
 30
0.0
 11
3628.1743716038259
 21
3776.1562679187468
 31
0.0
  0
LINE
  5
881A
  8
HOJYO
 10
5318.1743716038254
 20
3450.6562679187482
 30
0.0
 11
5318.1743716038254
 21
3776.1562679187468
 31
0.0
  0
LINE
  5
881B
  8
HOJYO
 10
3658.1743716038259
 20
3749.1562679187482
 30
0.0
 11
5288.1743716038263
 21
3749.1562679187482
 31
0.0
  0
INSERT
  5
881C
  8
HOJYO
  2
_OPEN30
 10
3628.1743716038259
 20
3749.1562679187482
 30
0.0
 41
30.0
 42
30.0
 43
30.0
 50
180.0
  0
INSERT
  5
881D
  8
HOJYO
  2
_OPEN30
 10
5318.1743716038254
 20
3749.1562679187482
 30
0.0
 41
30.0
 42
30.0
 43
30.0
  0
INSERT
  5
881E
  8
0
  2
*U44
 10
0.0
 20
0.0
 30
0.0
  0
POINT
  5
881F
  8
DEFPOINTS
 62
     0
 10
3628.1743716038259
 20
3449.1562679187468
 30
0.0
  0
POINT
  5
8820
  8
DEFPOINTS
 62
     0
 10
5318.1743716038254
 20
3449.1562679187468
 30
0.0
  0
POINT
  5
8821
  8
DEFPOINTS
 62
     0
 10
5318.1743716038254
 20
3749.1562679187482
 30
0.0
  0
ENDBLK
  5
44B9
  8
0
  0
BLOCK
  8
0
  2
*D7
 70
     1
 10
0.0
 20
0.0
 30
0.0
  3
*D7
  1

  0
LINE
  5
8822
  8
HOJYO
 10
3678.1743716038259
 20
2692.6562679187468
 30
0.0
 11
3678.1743716038259
 21
2321.489681724217
 31
0.0
  0
LINE
  5
8823
  8
HOJYO
 10
3628.1743716038259
 20
2682.6562679187482
 30
0.0
 11
3628.1743716038259
 21
2321.489681724217
 31
0.0
  0
LINE
  5
8824
  8
HOJYO
 10
3708.1743716038259
 20
2348.489681724217
 30
0.0
 11
3738.1743716038259
 21
2348.489681724217
 31
0.0
  0
LINE
  5
8825
  8
HOJYO
 10
3598.174371603825
 20
2348.489681724217
 30
0.0
 11
3500.6743716038259
 21
2348.489681724217
 31
0.0
  0
LINE
  5
8826
  8
HOJYO
 10
3678.1743716038259
 20
2348.489681724217
 30
0.0
 11
3628.1743716038259
 21
2348.489681724217
 31
0.0
  0
INSERT
  5
8827
  8
HOJYO
  2
_OPEN30
 10
3678.1743716038259
 20
2348.489681724217
 30
0.0
 41
30.0
 42
30.0
 43
30.0
 50
180.0
  0
INSERT
  5
8828
  8
HOJYO
  2
_OPEN30
 10
3628.1743716038259
 20
2348.489681724217
 30
0.0
 41
30.0
 42
30.0
 43
30.0
  0
INSERT
  5
8829
  8
0
  2
*U45
 10
0.0
 20
0.0
 30
0.0
  0
POINT
  5
882A
  8
DEFPOINTS
 62
     0
 10
3678.1743716038259
 20
2694.1562679187459
 30
0.0
  0
POINT
  5
882B
  8
DEFPOINTS
 62
     0
 10
3628.1743716038259
 20
2684.1562679187468
 30
0.0
  0
POINT
  5
882C
  8
DEFPOINTS
 62
     0
 10
3628.1743716038259
 20
2348.489681724217
 30
0.0
  0
ENDBLK
  5
44C8
  8
0
  0
BLOCK
  8
0
  2
*D8
 70
     1
 10
0.0
 20
0.0
 30
0.0
  3
*D8
  1

  0
LINE
  5
882D
  8
HOJYO
 10
3678.1743716038259
 20
2692.6562679187468
 30
0.0
 11
3678.1743716038259
 21
2321.489681724217
 31
0.0
  0
LINE
  5
882E
  8
HOJYO
 10
5308.1743716038272
 20
2692.6562679187482
 30
0.0
 11
5308.1743716038272
 21
2321.489681724217
 31
0.0
  0
LINE
  5
882F
  8
HOJYO
 10
3708.1743716038259
 20
2348.489681724217
 30
0.0
 11
5278.1743716038272
 21
2348.489681724217
 31
0.0
  0
INSERT
  5
8830
  8
HOJYO
  2
_OPEN30
 10
3678.1743716038259
 20
2348.489681724217
 30
0.0
 41
30.0
 42
30.0
 43
30.0
 50
180.0
  0
INSERT
  5
8831
  8
HOJYO
  2
_OPEN30
 10
5308.1743716038272
 20
2348.489681724217
 30
0.0
 41
30.0
 42
30.0
 43
30.0
  0
INSERT
  5
8832
  8
0
  2
*U46
 10
0.0
 20
0.0
 30
0.0
  0
POINT
  5
8833
  8
DEFPOINTS
 62
     0
 10
3678.1743716038259
 20
2694.1562679187459
 30
0.0
  0
POINT
  5
8834
  8
DEFPOINTS
 62
     0
 10
5308.1743716038272
 20
2694.1562679187482
 30
0.0
  0
POINT
  5
8835
  8
DEFPOINTS
 62
     0
 10
5308.1743716038272
 20
2348.489681724217
 30
0.0
  0
ENDBLK
  5
44ED
  8
0
  0
BLOCK
  8
0
  2
*D9
 70
     1
 10
0.0
 20
0.0
 30
0.0
  3
*D9
  1

  0
LINE
  5
8836
  8
HOJYO
 10
5308.1743716038272
 20
2692.6562679187482
 30
0.0
 11
5308.1743716038272
 21
2321.489681724217
 31
0.0
  0
LINE
  5
8837
  8
HOJYO
 10
5318.1743716038254
 20
2682.6562679187482
 30
0.0
 11
5318.1743716038254
 21
2321.489681724217
 31
0.0
  0
LINE
  5
8838
  8
HOJYO
 10
5278.1743716038272
 20
2348.489681724217
 30
0.0
 11
5248.1743716038272
 21
2348.489681724217
 31
0.0
  0
LINE
  5
8839
  8
HOJYO
 10
5348.1743716038254
 20
2348.489681724217
 30
0.0
 11
5430.6743716038254
 21
2348.489681724217
 31
0.0
  0
LINE
  5
883A
  8
HOJYO
 10
5308.1743716038272
 20
2348.489681724217
 30
0.0
 11
5318.1743716038254
 21
2348.489681724217
 31
0.0
  0
INSERT
  5
883B
  8
HOJYO
  2
_OPEN30
 10
5308.1743716038272
 20
2348.489681724217
 30
0.0
 41
30.0
 42
30.0
 43
30.0
  0
INSERT
  5
883C
  8
HOJYO
  2
_OPEN30
 10
5318.1743716038254
 20
2348.489681724217
 30
0.0
 41
30.0
 42
30.0
 43
30.0
 50
180.0
  0
INSERT
  5
883D
  8
0
  2
*U47
 10
0.0
 20
0.0
 30
0.0
  0
POINT
  5
883E
  8
DEFPOINTS
 62
     0
 10
5308.1743716038272
 20
2694.1562679187482
 30
0.0
  0
POINT
  5
883F
  8
DEFPOINTS
 62
     0
 10
5318.1743716038254
 20
2684.1562679187468
 30
0.0
  0
POINT
  5
8840
  8
DEFPOINTS
 62
     0
 10
5318.1743716038254
 20
2348.489681724217
 30
0.0
  0
ENDBLK
  5
44FC
  8
0
  0
BLOCK
  8
0
  2
*D10
 70
     1
 10
0.0
 20
0.0
 30
0.0
  3
*D10
  1

  0
LINE
  5
8841
  8
HOJYO
 10
5309.6743716038263
 20
3439.1562679187468
 30
0.0
 11
5647.4996821247332
 21
3439.1562679187468
 31
0.0
  0
LINE
  5
8842
  8
HOJYO
 10
5319.6743716038254
 20
3449.1562679187468
 30
0.0
 11
5647.4996821247332
 21
3449.1562679187468
 31
0.0
  0
LINE
  5
8843
  8
HOJYO
 10
5620.4996821247341
 20
3409.1562679187482
 30
0.0
 11
5620.4996821247341
 21
3379.1562679187468
 31
0.0
  0
LINE
  5
8844
  8
HOJYO
 10
5620.4996821247341
 20
3479.1562679187468
 30
0.0
 11
5620.4996821247341
 21
3561.6562679187482
 31
0.0
  0
LINE
  5
8845
  8
HOJYO
 10
5620.4996821247341
 20
3439.1562679187468
 30
0.0
 11
5620.4996821247341
 21
3449.1562679187468
 31
0.0
  0
INSERT
  5
8846
  8
HOJYO
  2
_OPEN30
 10
5620.4996821247341
 20
3439.1562679187468
 30
0.0
 41
30.0
 42
30.0
 43
30.0
 50
90.0
  0
INSERT
  5
8847
  8
HOJYO
  2
_OPEN30
 10
5620.4996821247341
 20
3449.1562679187468
 30
0.0
 41
30.0
 42
30.0
 43
30.0
 50
270.0
  0
INSERT
  5
8848
  8
0
  2
*U48
 10
0.0
 20
0.0
 30
0.0
  0
POINT
  5
8849
  8
DEFPOINTS
 62
     0
 10
5308.1743716038263
 20
3439.1562679187468
 30
0.0
  0
POINT
  5
884A
  8
DEFPOINTS
 62
     0
 10
5318.1743716038254
 20
3449.1562679187468
 30
0.0
  0
POINT
  5
884B
  8
DEFPOINTS
 62
     0
 10
5620.4996821247341
 20
3449.1562679187468
 30
0.0
  0
ENDBLK
  5
4516
  8
0
  0
BLOCK
  8
0
  2
*D11
 70
     1
 10
0.0
 20
0.0
 30
0.0
  3
*D11
  1

  0
LINE
  5
884C
  8
HOJYO
 10
5309.6743716038263
 20
3439.1562679187468
 30
0.0
 11
5647.4996821247332
 21
3439.1562679187468
 31
0.0
  0
LINE
  5
884D
  8
HOJYO
 10
5309.6743716038272
 20
2694.1562679187482
 30
0.0
 11
5647.4996821247332
 21
2694.1562679187482
 31
0.0
  0
LINE
  5
884E
  8
HOJYO
 10
5620.4996821247341
 20
3409.1562679187482
 30
0.0
 11
5620.4996821247341
 21
2724.1562679187468
 31
0.0
  0
INSERT
  5
884F
  8
HOJYO
  2
_OPEN30
 10
5620.4996821247341
 20
3439.1562679187468
 30
0.0
 41
30.0
 42
30.0
 43
30.0
 50
90.0
  0
INSERT
  5
8850
  8
HOJYO
  2
_OPEN30
 10
5620.4996821247341
 20
2694.1562679187482
 30
0.0
 41
30.0
 42
30.0
 43
30.0
 50
270.0
  0
INSERT
  5
8851
  8
0
  2
*U49
 10
0.0
 20
0.0
 30
0.0
  0
POINT
  5
8852
  8
DEFPOINTS
 62
     0
 10
5308.1743716038263
 20
3439.1562679187468
 30
0.0
  0
POINT
  5
8853
  8
DEFPOINTS
 62
     0
 10
5308.1743716038272
 20
2694.1562679187482
 30
0.0
  0
POINT
  5
8854
  8
DEFPOINTS
 62
     0
 10
5620.4996821247341
 20
2694.1562679187482
 30
0.0
  0
ENDBLK
  5
453B
  8
0
  0
BLOCK
  8
0
  2
*D12
 70
     1
 10
0.0
 20
0.0
 30
0.0
  3
*D12
  1

  0
LINE
  5
8855
  8
HOJYO
 10
5309.6743716038272
 20
2694.1562679187482
 30
0.0
 11
5647.4996821247332
 21
2694.1562679187482
 31
0.0
  0
LINE
  5
8856
  8
HOJYO
 10
5319.6743716038254
 20
2684.1562679187468
 30
0.0
 11
5647.4996821247332
 21
2684.1562679187468
 31
0.0
  0
LINE
  5
8857
  8
HOJYO
 10
5620.4996821247341
 20
2724.1562679187468
 30
0.0
 11
5620.4996821247341
 21
2754.1562679187482
 31
0.0
  0
LINE
  5
8858
  8
HOJYO
 10
5620.4996821247341
 20
2654.1562679187482
 30
0.0
 11
5620.4996821247341
 21
2571.6562679187482
 31
0.0
  0
LINE
  5
8859
  8
HOJYO
 10
5620.4996821247341
 20
2694.1562679187482
 30
0.0
 11
5620.4996821247341
 21
2684.1562679187468
 31
0.0
  0
INSERT
  5
885A
  8
HOJYO
  2
_OPEN30
 10
5620.4996821247341
 20
2694.1562679187482
 30
0.0
 41
30.0
 42
30.0
 43
30.0
 50
270.0
  0
INSERT
  5
885B
  8
HOJYO
  2
_OPEN30
 10
5620.4996821247341
 20
2684.1562679187468
 30
0.0
 41
30.0
 42
30.0
 43
30.0
 50
90.0
  0
INSERT
  5
885C
  8
0
  2
*U50
 10
0.0
 20
0.0
 30
0.0
  0
POINT
  5
885D
  8
DEFPOINTS
 62
     0
 10
5308.1743716038272
 20
2694.1562679187482
 30
0.0
  0
POINT
  5
885E
  8
DEFPOINTS
 62
     0
 10
5318.1743716038254
 20
2684.1562679187468
 30
0.0
  0
POINT
  5
885F
  8
DEFPOINTS
 62
     0
 10
5620.4996821247341
 20
2684.1562679187468
 30
0.0
  0
ENDBLK
  5
454A
  8
0
  0
BLOCK
  8
0
  2
*D13
 70
     1
 10
0.0
 20
0.0
 30
0.0
  3
*D13
  1

  0
LINE
  5
9CE3
  8
SCALE
 10
1082.42292348402
 20
3464.124473563912
 30
0.0
 11
1082.42292348402
 21
3760.1778740979048
 31
0.0
  0
LINE
  5
9CE4
  8
SCALE
 10
2142.4229234840191
 20
3464.124473563912
 30
0.0
 11
2142.4229234840191
 21
3760.1778740979048
 31
0.0
  0
LINE
  5
9CE5
  8
SCALE
 10
1112.42292348402
 20
3733.1778740979048
 30
0.0
 11
2112.42292348402
 21
3733.1778740979048
 31
0.0
  0
INSERT
  5
9CE6
  8
SCALE
  2
_OPEN30
 10
1082.42292348402
 20
3733.1778740979048
 30
0.0
 41
30.0
 42
30.0
 43
30.0
 50
180.0
  0
INSERT
  5
9CE7
  8
SCALE
  2
_OPEN30
 10
2142.4229234840191
 20
3733.1778740979048
 30
0.0
 41
30.0
 42
30.0
 43
30.0
  0
INSERT
  5
9CE8
  8
0
  2
*U57
 10
0.0
 20
0.0
 30
0.0
  0
POINT
  5
9CE9
  8
DEFPOINTS
 62
     0
 10
1082.42292348402
 20
3462.624473563912
 30
0.0
  0
POINT
  5
9CEA
  8
DEFPOINTS
 62
     0
 10
2142.4229234840191
 20
3462.624473563912
 30
0.0
  0
POINT
  5
9CEB
  8
DEFPOINTS
 62
     0
 10
2142.4229234840191
 20
3733.1778740979048
 30
0.0
  0
ENDBLK
  5
4C19
  8
0
  0
BLOCK
  8
0
  2
*D14
 70
     1
 10
0.0
 20
0.0
 30
0.0
  3
*D14
  1

  0
LINE
  5
9B5E
  8
SCALE
 10
1064.654198662108
 20
3443.1778740979039
 30
0.0
 11
679.17738836775186
 21
3443.1778740979048
 31
0.0
  0
LINE
  5
9B5F
  8
SCALE
 10
994.92292348401986
 20
3463.1778740979048
 30
0.0
 11
679.17738836775186
 21
3463.1778740979048
 31
0.0
  0
LINE
  5
9B60
  8
SCALE
 10
706.17738836775197
 20
3413.1778740979048
 30
0.0
 11
706.17738836775197
 21
3383.1778740979048
 31
0.0
  0
LINE
  5
9B61
  8
SCALE
 10
706.17738836775197
 20
3493.1778740979062
 30
0.0
 11
706.17738836775197
 21
3590.6778740979062
 31
0.0
  0
LINE
  5
9B62
  8
SCALE
 10
706.17738836775197
 20
3443.1778740979048
 30
0.0
 11
706.17738836775197
 21
3463.1778740979048
 31
0.0
  0
INSERT
  5
9B63
  8
SCALE
  2
_OPEN30
 10
706.17738836775197
 20
3443.1778740979048
 30
0.0
 41
30.0
 42
30.0
 43
30.0
 50
90.0
  0
INSERT
  5
9B64
  8
SCALE
  2
_OPEN30
 10
706.17738836775197
 20
3463.1778740979048
 30
0.0
 41
30.0
 42
30.0
 43
30.0
 50
270.0
  0
INSERT
  5
9B65
  8
0
  2
*U51
 10
0.0
 20
0.0
 30
0.0
  0
POINT
  5
9B66
  8
DEFPOINTS
 62
     0
 10
1066.154198662108
 20
3443.1778740979039
 30
0.0
  0
POINT
  5
9B67
  8
DEFPOINTS
 62
     0
 10
996.42292348401998
 20
3463.1778740979048
 30
0.0
  0
POINT
  5
9B68
  8
DEFPOINTS
 62
     0
 10
706.17738836775197
 20
3463.1778740979048
 30
0.0
  0
ENDBLK
  5
4CBB
  8
0
  0
BLOCK
  8
0
  2
*D15
 70
     1
 10
0.0
 20
0.0
 30
0.0
  3
*D15
  1

  0
LINE
  5
9B69
  8
SCALE
 10
1064.654198662108
 20
2762.1778740979039
 30
0.0
 11
679.17738836775186
 21
2762.1778740979039
 31
0.0
  0
LINE
  5
9B6A
  8
SCALE
 10
1059.92292348402
 20
2742.1778740979048
 30
0.0
 11
679.17738836775186
 21
2742.1778740979048
 31
0.0
  0
LINE
  5
9B6B
  8
SCALE
 10
706.17738836775197
 20
2792.1778740979039
 30
0.0
 11
706.17738836775209
 21
2822.1778740979039
 31
0.0
  0
LINE
  5
9B6C
  8
SCALE
 10
706.17738836775197
 20
2712.1778740979048
 30
0.0
 11
706.17738836775197
 21
2614.6778740979048
 31
0.0
  0
LINE
  5
9B6D
  8
SCALE
 10
706.17738836775197
 20
2762.1778740979039
 30
0.0
 11
706.17738836775197
 21
2742.1778740979048
 31
0.0
  0
INSERT
  5
9B6E
  8
SCALE
  2
_OPEN30
 10
706.17738836775197
 20
2762.1778740979039
 30
0.0
 41
30.0
 42
30.0
 43
30.0
 50
270.0
  0
INSERT
  5
9B6F
  8
SCALE
  2
_OPEN30
 10
706.17738836775197
 20
2742.1778740979048
 30
0.0
 41
30.0
 42
30.0
 43
30.0
 50
90.0
  0
INSERT
  5
9B70
  8
0
  2
*U52
 10
0.0
 20
0.0
 30
0.0
  0
POINT
  5
9B71
  8
DEFPOINTS
 62
     0
 10
1066.154198662108
 20
2762.1778740979039
 30
0.0
  0
POINT
  5
9B72
  8
DEFPOINTS
 62
     0
 10
1061.42292348402
 20
2742.1778740979048
 30
0.0
  0
POINT
  5
9B73
  8
DEFPOINTS
 62
     0
 10
706.17738836775197
 20
2742.1778740979048
 30
0.0
  0
ENDBLK
  5
4CD5
  8
0
  0
BLOCK
  8
0
  2
*D16
 70
     1
 10
0.0
 20
0.0
 30
0.0
  3
*D16
  1

  0
LINE
  5
9B74
  8
SCALE
 10
1064.654198662108
 20
3443.1778740979039
 30
0.0
 11
679.1773883677522
 21
3443.1778740979048
 31
0.0
  0
LINE
  5
9B75
  8
SCALE
 10
1064.654198662108
 20
2762.1778740979039
 30
0.0
 11
679.17738836775186
 21
2762.1778740979039
 31
0.0
  0
LINE
  5
9B76
  8
SCALE
 10
706.17738836775209
 20
3413.1778740979048
 30
0.0
 11
706.17738836775197
 21
2792.1778740979039
 31
0.0
  0
INSERT
  5
9B77
  8
SCALE
  2
_OPEN30
 10
706.17738836775209
 20
3443.1778740979048
 30
0.0
 41
30.0
 42
30.0
 43
30.0
 50
90.0
  0
INSERT
  5
9B78
  8
SCALE
  2
_OPEN30
 10
706.17738836775197
 20
2762.1778740979039
 30
0.0
 41
30.0
 42
30.0
 43
30.0
 50
270.0
  0
INSERT
  5
9B79
  8
0
  2
*U53
 10
0.0
 20
0.0
 30
0.0
  0
POINT
  5
9B7A
  8
DEFPOINTS
 62
     0
 10
1066.154198662108
 20
3443.1778740979039
 30
0.0
  0
POINT
  5
9B7B
  8
DEFPOINTS
 62
     0
 10
1066.154198662108
 20
2762.1778740979039
 30
0.0
  0
POINT
  5
9B7C
  8
DEFPOINTS
 62
     0
 10
706.17738836775197
 20
2762.1778740979039
 30
0.0
  0
ENDBLK
  5
4CED
  8
0
  0
BLOCK
  8
0
  2
TICK
 70
     0
 10
184.0
 20
133.0
 30
0.0
  3
TICK
  1

  0
LINE
  5
56C2
  8
0
 10
184.0
 20
133.0
 30
0.0
 11
183.0
 21
133.0
 31
0.0
  0
LINE
  5
56C3
  8
0
 10
184.5
 20
133.5
 30
0.0
 11
183.5
 21
132.5
 31
0.0
  0
ENDBLK
  5
56C5
  8
0
  0
BLOCK
  8
0
  2
YAZ0
 70
     0
 10
206.47575797211391
 20
134.82173913043471
 30
0.0
  3
YAZ0
  1

  0
LINE
  5
56C7
  8
0
 10
206.47575797211391
 20
134.82173913043471
 30
0.0
 11
205.47575797211391
 21
134.82173913043471
 31
0.0
  0
ENDBLK
  5
56C9
  8
0
  0
BLOCK
  8
0
  2
RECTANG
 70
     0
 10
0.0
 20
0.0
 30
0.0
  3
RECTANG
  1

  0
LINE
  5
56CB
  8
0
 10
0.0
 20
0.0
 30
0.0
 11
1.00000000000004
 21
0.0
 31
0.0
  0
LINE
  5
56CC
  8
0
 10
1.00000000000004
 20
0.0
 30
0.0
 11
1.00000000000004
 21
1.00000000000004
 31
0.0
  0
LINE
  5
56CD
  8
0
 10
1.00000000000004
 20
1.00000000000004
 30
0.0
 11
0.0
 21
1.00000000000004
 31
0.0
  0
LINE
  5
56CE
  8
0
 10
0.0
 20
1.00000000000004
 30
0.0
 11
0.0
 21
0.0
 31
0.0
  0
ENDBLK
  5
56D0
  8
0
  0
BLOCK
  8
0
  2
TYUUKI
 70
     0
 10
0.0
 20
0.0
 30
0.0
  3
TYUUKI
  1

  0
TEXT
  5
56D2
  8
1
 10
256.79947037737952
 20
67.331008668342974
 30
0.0
 40
3.0
  1
※ 図面に指示なき寸法公差は、Sanki-STANDARD　KSS11-3，4による。
  0
ENDBLK
  5
56D4
  8
0
  0
BLOCK
  8
0
  2
WAKU
 70
     0
 10
0.0
 20
0.0
 30
0.0
  3
WAKU
  1

  0
LINE
  5
56D6
  8
GAWA
 62
     9
 10
225.0
 20
52.999999999999972
 30
0.0
 11
399.0
 21
52.999999999999972
 31
0.0
  0
LINE
  5
56D7
  8
GAWA
 62
     9
 10
225.0
 20
58.999999999999972
 30
0.0
 11
399.0
 21
58.999999999999972
 31
0.0
  0
LINE
  5
56D8
  8
GAWA
 10
215.0
 20
46.999999999999972
 30
0.0
 11
399.00000000000011
 21
46.999999999999972
 31
0.0
  0
LINE
  5
56D9
  8
GAWA
 10
399.0
 20
0.0
 30
0.0
 11
215.0
 21
0.0
 31
0.0
  0
LINE
  5
56DA
  8
GAWA
 10
215.0
 20
64.999999999999972
 30
0.0
 11
399.0
 21
64.999999999999972
 31
0.0
  0
LINE
  5
56DB
  8
GAWA
 10
308.0
 20
30.9118705035971
 30
0.0
 11
399.00000000000011
 21
30.9118705035971
 31
0.0
  0
LINE
  5
56DC
  8
GAWA
 62
     9
 10
308.0
 20
19.9118705035971
 30
0.0
 11
399.00000000000011
 21
19.911870503597129
 31
0.0
  0
LINE
  5
56DD
  8
GAWA
 62
     9
 10
308.0
 20
10.0
 30
0.0
 11
399.00000000000011
 21
10.00000000000003
 31
0.0
  0
TEXT
  5
56DE
  8
GAWA
 62
     9
 10
325.34809404604169
 20
47.997751798561147
 30
0.0
 40
4.0
  1
名　　称
 72
     4
 11
334.41476071270841
 21
49.997751798561147
 31
0.0
  0
SOLID
  5
56DF
  8
GAWA
 62
     8
 10
341.06310154001011
 20
40.268491969464868
 30
0.0
 11
341.55460355933832
 21
39.403119388564278
 31
0.0
 12
340.02821390477021
 22
38.507342993761512
 32
0.0
 13
341.02821390477021
 23
38.507342993761512
 33
0.0
  0
SOLID
  5
56E0
  8
GAWA
 62
     8
 10
340.02821390477021
 20
42.090586993761519
 30
0.0
 11
341.02821390477021
 21
42.090586993761519
 31
0.0
 12
342.06337390477017
 22
38.507342993761512
 32
0.0
 13
343.06338390477021
 23
38.507342993761512
 33
0.0
  0
SOLID
  5
56E1
  8
GAWA
 62
     8
 10
341.02821390477021
 20
43.497406993761508
 30
0.0
 11
343.06338390477021
 21
43.497406993761508
 31
0.0
 12
340.47821390477031
 22
42.89740199376152
 32
0.0
 13
343.06338390477021
 23
42.89740199376152
 33
0.0
  0
LINE
  5
56E2
  8
GAWA
 62
     9
 10
270.0
 20
64.999999999999972
 30
0.0
 11
270.0
 21
46.999999999999972
 31
0.0
  0
LINE
  5
56E3
  8
GAWA
 62
     9
 10
260.0
 20
64.999999999999972
 30
0.0
 11
260.0
 21
46.999999999999972
 31
0.0
  0
LINE
  5
56E4
  8
GAWA
 62
     9
 10
235.0
 20
64.999999999999972
 30
0.0
 11
235.0
 21
46.999999999999972
 31
0.0
  0
LINE
  5
56E5
  8
GAWA
 10
225.0
 20
46.999999999999972
 30
0.0
 11
225.0
 21
64.999999999999972
 31
0.0
  0
LINE
  5
56E6
  8
GAWA
 10
215.0
 20
0.0
 30
0.0
 11
215.0
 21
64.999999999999972
 31
0.0
  0
TEXT
  5
56E7
  8
GAWA
 62
     9
 10
218.21360708040771
 20
53.918165467625897
 30
0.0
 40
4.0
  1
角
 72
     4
 11
220.0802737470743
 21
55.918165467625897
 31
0.0
  0
LINE
  5
56E8
  8
GAWA
 62
     9
 10
322.0
 20
64.999999999999972
 30
0.0
 11
322.0
 21
46.999999999999972
 31
0.0
  0
LINE
  5
56E9
  8
GAWA
 62
     9
 10
291.00000000000011
 20
64.999999999999972
 30
0.0
 11
291.0
 21
46.999999999999972
 31
0.0
  0
LINE
  5
56EA
  8
GAWA
 10
312.0
 20
64.999999999999972
 30
0.0
 11
312.0
 21
46.999999999999972
 31
0.0
  0
TEXT
  5
56EB
  8
GAWA
 62
     9
 10
271.71039984776178
 20
47.997751798561147
 30
0.0
 40
4.0
  1
材　　質
 72
     4
 11
280.7770665144285
 21
49.997751798561147
 31
0.0
  0
LINE
  5
56EC
  8
GAWA
 62
     9
 10
215.0
 20
23.000000000000028
 30
0.0
 11
308.0
 21
23.000000000000028
 31
0.0
  0
LINE
  5
56ED
  8
GAWA
 62
     9
 10
215.0
 20
40.999999999999957
 30
0.0
 11
308.0
 21
40.999999999999957
 31
0.0
  0
LINE
  5
56EE
  8
GAWA
 62
     9
 10
215.0
 20
34.999999999999972
 30
0.0
 11
308.0
 21
34.999999999999972
 31
0.0
  0
LINE
  5
56EF
  8
GAWA
 62
     9
 10
215.0
 20
28.999999999999972
 30
0.0
 11
308.0
 21
28.999999999999972
 31
0.0
  0
LINE
  5
56F0
  8
GAWA
 62
     9
 10
215.0
 20
12.0
 30
0.0
 11
308.0
 21
12.0
 31
0.0
  0
LINE
  5
56F1
  8
GAWA
 10
215.0
 20
17.0
 30
0.0
 11
308.0
 21
17.0
 31
0.0
  0
TEXT
  5
56F2
  8
GAWA
 62
     9
 10
274.60218445761592
 20
12.91187050359707
 30
0.0
 40
3.2000000000000002
  1
作成年月日
  0
LINE
  5
56F3
  8
GAWA
 62
     9
 10
272.00000000000011
 20
-0.0000000000001053
 30
0.0
 11
272.0
 21
16.999999999999918
 31
0.0
  0
LINE
  5
56F4
  8
GAWA
 62
     9
 10
253.00000000000011
 20
17.000000000000021
 30
0.0
 11
253.00000000000011
 21
0.0000000000000169
 31
0.0
  0
LINE
  5
56F5
  8
GAWA
 62
     9
 10
234.0
 20
17.000000000000028
 30
0.0
 11
234.0
 21
-0.0000000000000018
 31
0.0
  0
TEXT
  5
56F6
  8
GAWA
 62
     9
 10
238.1829557352352
 20
12.8223021582734
 30
0.0
 40
3.2000000000000002
  1
検　図
  0
TEXT
  5
56F7
  8
GAWA
 62
     9
 10
238.5627057556587
 20
48.220323741007213
 30
0.0
 40
4.0
  1
名　　称
 72
     4
 11
247.62937242232539
 21
50.220323741007213
 31
0.0
  0
TEXT
  5
56F8
  8
GAWA
 62
     9
 10
231.3045202606348
 20
18.499999999999972
 30
0.0
 40
3.0
  1
来　歴・変　更　事　項
 72
     4
 11
250.70452026063481
 21
19.999999999999972
 31
0.0
  0
LINE
  5
56F9
  8
GAWA
 62
     9
 10
220.16618569720501
 20
34.46223021582734
 30
0.0
 11
222.66618569720501
 21
30.132103196905241
 31
0.0
  0
LINE
  5
56FA
  8
GAWA
 62
     9
 10
217.66618569720501
 20
30.132103196905241
 30
0.0
 11
220.16618569720501
 21
34.46223021582734
 31
0.0
  0
LINE
  5
56FB
  8
GAWA
 10
225.0
 20
46.999999999999972
 30
0.0
 11
225.0
 21
17.0
 31
0.0
  0
TEXT
  5
56FC
  8
GAWA
 62
     9
 10
218.98346451707209
 20
30.310521582733799
 30
0.0
 40
2.399999999999999
  1
２
  0
TEXT
  5
56FD
  8
GAWA
 62
     9
 10
219.06881587706269
 20
12.8223021582734
 30
0.0
 40
3.2000000000000002
  1
承　認
  0
TEXT
  5
56FE
  8
GAWA
 62
     9
 10
215.91383768889349
 20
18.23246402877697
 30
0.0
 40
4.0
  1
符号
 72
     4
 11
220.1805043555602
 21
20.23246402877697
 31
0.0
  0
LINE
  5
56FF
  8
GAWA
 62
     9
 10
217.66618569720501
 20
23.781383772444801
 30
0.0
 11
220.16618569720501
 21
28.1115107913669
 31
0.0
  0
LINE
  5
5700
  8
GAWA
 62
     9
 10
222.66618569720501
 20
23.781383772444801
 30
0.0
 11
217.66618569720501
 21
23.781383772444801
 31
0.0
  0
LINE
  5
5701
  8
GAWA
 62
     9
 10
222.66618569720501
 20
30.132103196905241
 30
0.0
 11
217.66618569720501
 21
30.132103196905241
 31
0.0
  0
LINE
  5
5702
  8
GAWA
 62
     9
 10
220.16618569720501
 20
28.1115107913669
 30
0.0
 11
222.66618569720501
 21
23.781383772444801
 31
0.0
  0
TEXT
  5
5703
  8
GAWA
 62
     9
 10
219.0693764672028
 20
24.194244604316541
 30
0.0
 40
2.399999999999999
  1
１
  0
TEXT
  5
5704
  8
GAWA
 62
     9
 10
225.86501172254279
 20
48.024280575539571
 30
0.0
 40
4.0
  1
番号
  0
LINE
  5
5705
  8
GAWA
 62
     9
 10
217.66618569720501
 20
41.735520463092278
 30
0.0
 11
220.16618569720501
 21
46.065647482014377
 31
0.0
  0
LINE
  5
5706
  8
GAWA
 62
     9
 10
220.16618569720501
 20
46.065647482014377
 30
0.0
 11
222.66618569720501
 21
41.735520463092278
 31
0.0
  0
TEXT
  5
5707
  8
GAWA
 62
     9
 10
218.9090074936255
 20
42.089028776978402
 30
0.0
 40
2.399999999999999
  1
４
  0
LINE
  5
5708
  8
GAWA
 62
     9
 10
222.66618569720501
 20
41.735520463092278
 30
0.0
 11
217.66618569720501
 21
41.735520463092278
 31
0.0
  0
LINE
  5
5709
  8
GAWA
 62
     9
 10
217.66618569720501
 20
36.037678736473602
 30
0.0
 11
220.16618569720501
 21
40.367805755395693
 31
0.0
  0
LINE
  5
570A
  8
GAWA
 62
     9
 10
222.66618569720501
 20
36.037678736473602
 30
0.0
 11
217.66618569720501
 21
36.037678736473602
 31
0.0
  0
LINE
  5
570B
  8
GAWA
 62
     9
 10
220.16618569720501
 20
40.367805755395693
 30
0.0
 11
222.66618569720501
 21
36.037678736473602
 31
0.0
  0
TEXT
  5
570C
  8
GAWA
 62
     9
 10
213.32759446679961
 20
36.379316546762603
 30
0.0
 40
2.399999999999999
  1
　　３
  0
TEXT
  5
570D
  8
GAWA
 62
     9
 10
218.21360708040771
 20
48.05710431654677
 30
0.0
 40
4.0
  1
法
 72
     4
 11
220.0802737470743
 21
50.057104316546763
 31
0.0
  0
TEXT
  5
570E
  8
GAWA
 62
     9
 10
257.09888659519441
 20
12.76041366906472
 30
0.0
 40
3.2000000000000002
  1
作　成
  0
TEXT
  5
570F
  8
GAWA
 62
     9
 10
263.07396370699888
 20
47.997751798561147
 30
0.0
 40
4.0
  1
数
 72
     4
 11
264.94063037366561
 21
49.997751798561147
 31
0.0
  0
LINE
  5
5710
  8
GAWA
 62
     9
 10
313.0
 20
19.9118705035971
 30
0.0
 11
313.0
 21
-0.0000000000000284
 31
0.0
  0
LINE
  5
5711
  8
GAWA
 62
     9
 10
295.00000000000011
 20
-0.0000000000000284
 30
0.0
 11
295.0
 21
17.0
 31
0.0
  0
LINE
  5
5712
  8
GAWA
 62
     2
 10
308.0
 20
16.999999999999972
 30
0.0
 11
308.0
 21
0.0
 31
0.0
  0
LINE
  5
5713
  8
GAWA
 62
     9
 10
297.74467666524578
 20
2.2634892086331031
 30
0.0
 11
305.634257418917
 21
10.023830935251789
 31
0.0
  0
TEXT
  5
5714
  8
GAWA
 62
     9
 10
291.67356552267478
 20
8.6815484867187251
 30
0.0
 40
2.0
  1
日
  0
TEXT
  5
5715
  8
GAWA
 62
     9
 10
285.81723425543072
 20
8.5590664723302439
 30
0.0
 40
2.0
  1
月
  0
TEXT
  5
5716
  8
GAWA
 62
     9
 10
279.5456618958882
 20
8.6591564003878148
 30
0.0
 40
2.0
  1
年
  0
TEXT
  5
5717
  8
GAWA
 62
     9
 10
308.621615934636
 20
0.2634892086331042
 30
0.0
 40
4.0
  1
番
 72
     4
 11
310.48828260130273
 21
2.2634892086331031
 31
0.0
  0
TEXT
  5
5718
  8
GAWA
 62
     9
 10
308.621615934636
 20
5.2192146282973582
 30
0.0
 40
4.0
  1
品
 72
     4
 11
310.48828260130273
 21
7.0858812949640253
 31
0.0
  0
TEXT
  5
5719
  8
GAWA
 62
     9
 10
292.61564104623722
 20
48.220323741007213
 30
0.0
 40
4.0
  1
備　　考
 72
     4
 11
301.68230771290382
 21
50.220323741007213
 31
0.0
  0
LINE
  5
571A
  8
GAWA
 62
     2
 10
308.0
 20
17.0
 30
0.0
 11
308.0
 21
46.999999999999972
 31
0.0
  0
LINE
  5
571B
  8
GAWA
 62
     9
 10
278.99880544702768
 20
16.999999999999972
 30
0.0
 11
278.99880544702768
 21
46.999999999999943
 31
0.0
  0
LINE
  5
571C
  8
GAWA
 62
     9
 10
290.0
 20
16.999999999999972
 30
0.0
 11
290.0
 21
46.999999999999943
 31
0.0
  0
LINE
  5
571D
  8
GAWA
 62
     9
 10
299.0
 20
16.999999999999972
 30
0.0
 11
299.0
 21
46.999999999999943
 31
0.0
  0
LINE
  5
571E
  8
GAWA
 62
     2
 10
308.0
 20
16.999999999999972
 30
0.0
 11
308.0
 21
46.999999999999943
 31
0.0
  0
TEXT
  5
571F
  8
GAWA
 62
     9
 10
291.31836015171677
 20
18.499999999999972
 30
0.0
 40
3.0
  1
承認
 72
     4
 11
294.51836015171682
 21
19.999999999999972
 31
0.0
  0
TEXT
  5
5720
  8
GAWA
 62
     9
 10
281.48027410099718
 20
18.499999999999972
 30
0.0
 40
3.0
  1
日付
 72
     4
 11
284.88027410099721
 21
19.999999999999972
 31
0.0
  0
TEXT
  5
5721
  8
GAWA
 62
     9
 10
300.31836015171677
 20
18.499999999999972
 30
0.0
 40
3.0
  1
訂正
 72
     4
 11
303.51836015171682
 21
19.999999999999972
 31
0.0
  0
TEXT
  5
5722
  8
GAWA
 62
     9
 10
298.1513265625311
 20
13.271061151079071
 30
0.0
 40
3.2000000000000002
  1
尺度
  0
ARC
  5
5723
  8
GAWA
 62
     9
 10
316.31175254762178
 20
32.881500134633328
 30
0.0
 40
0.6003428349649722
 50
214.70264620889111
 51
269.99999999999619
  0
ARC
  5
5724
  8
GAWA
 62
     8
 10
316.31175254762172
 20
32.881500134633363
 30
0.0
 40
0.6003428349650023
 50
270.0
 51
325.29735379110753
  0
ARC
  5
5725
  8
GAWA
 10
312.48324994455839
 20
35.532742625916839
 30
0.0
 40
5.3072215030483703
 50
325.29735379110917
 51
343.99481247159548
  0
ARC
  5
5726
  8
GAWA
 62
     8
 10
316.31175254762172
 20
32.881500134633363
 30
0.0
 40
0.6503428349650023
 50
270.0
 51
325.29735379110753
  0
ARC
  5
5727
  8
GAWA
 62
     9
 10
316.31175254762178
 20
32.881500134633328
 30
0.0
 40
0.6503428349649723
 50
214.70264620889111
 51
269.99999999999619
  0
ARC
  5
5728
  8
GAWA
 62
     9
 10
320.14025515068528
 20
35.532742625916917
 30
0.0
 40
5.3072215030485443
 50
196.00518752840489
 51
214.7026462088906
  0
LINE
  5
5729
  8
GAWA
 62
     9
 10
323.0
 20
30.911870503597129
 30
0.0
 11
323.0
 21
19.911870503597111
 31
0.0
  0
TEXT
  5
572A
  8
GAWA
 62
     9
 10
308.621615934636
 20
10.32374100719422
 30
0.0
 40
4.0
  1
称
 72
     4
 11
310.48828260130273
 21
12.323741007194229
 31
0.0
  0
TEXT
  5
572B
  8
GAWA
 62
     9
 10
308.75494926796932
 20
15.146133093525179
 30
0.0
 40
4.0
  1
名
 72
     4
 11
310.48828260130273
 21
17.146133093525179
 31
0.0
  0
LINE
  5
572C
  8
GAWA
 62
     9
 10
316.18283018105279
 20
23.015718592978018
 30
0.0
 11
321.03325327849228
 21
22.057230458081879
 31
0.0
  0
LINE
  5
572D
  8
GAWA
 62
     9
 10
321.03325327849228
 20
25.766206735223221
 30
0.0
 11
316.18283018105268
 21
24.807718600327071
 31
0.0
  0
LINE
  5
572E
  8
GAWA
 62
     9
 10
315.45859466242541
 20
23.911718596652548
 30
0.0
 11
321.75121980795421
 21
23.911718596652548
 31
0.0
  0
TEXT
  5
572F
  8
GAWA
 62
     9
 10
308.84438928149069
 20
26.974608993736009
 30
0.0
 40
2.2999999999999989
  1
三　角　法
  0
CIRCLE
  5
5730
  8
GAWA
 62
     9
 10
311.18974758074739
 20
23.911718596652548
 30
0.0
 40
1.8544881385706711
  0
LINE
  5
5731
  8
GAWA
 62
     9
 10
308.97852528632649
 20
23.911718596652548
 30
0.0
 11
313.4009698751683
 21
23.911718596652548
 31
0.0
  0
LINE
  5
5732
  8
GAWA
 62
     9
 10
311.18974758074739
 20
21.700496302231588
 30
0.0
 11
311.18974758074739
 21
26.12294089107348
 31
0.0
  0
CIRCLE
  5
5733
  8
GAWA
 62
     9
 10
311.18974758074739
 20
23.911718596652548
 30
0.0
 40
0.8960000036745867
  0
LINE
  5
5734
  8
GAWA
 62
     9
 10
316.18283018105268
 20
23.015718592978018
 30
0.0
 11
316.18283018105268
 21
24.807718600327071
 31
0.0
  0
LINE
  5
5735
  8
GAWA
 62
     9
 10
321.03325327849228
 20
22.057230458081879
 30
0.0
 11
321.03325327849228
 21
25.766206735223221
 31
0.0
  0
ARC
  5
5736
  8
GAWA
 10
312.48324994455822
 20
41.481961811549382
 30
0.0
 40
5.307221503048547
 50
16.00518752840448
 51
34.70264620888932
  0
ARC
  5
5737
  8
GAWA
 62
     9
 10
320.14025515068471
 20
41.481961811549283
 30
0.0
 40
5.3072215030480301
 50
145.29735379110471
 51
163.99481247159281
  0
POLYLINE
  5
5738
  8
GAWA
 62
     8
 66
     1
 10
0.0
 20
0.0
 30
0.0
 70
     1
 40
0.7016625000000002
 41
0.7016625000000002
  0
VERTEX
  5
A038
  8
GAWA
 62
     8
 10
315.86068379762179
 20
38.507352218733132
 30
0.0
 42
1.0
  0
VERTEX
  5
A039
  8
GAWA
 62
     8
 10
316.76282129762183
 20
38.507352218733132
 30
0.0
 42
1.0
  0
SEQEND
  5
A03A
  8
GAWA
 62
     8
  0
ARC
  5
5739
  8
GAWA
 10
309.14363679757849
 20
49.909144823024207
 30
0.0
 40
15.16700142214073
 50
293.2242006730375
 51
301.90260550447471
  0
ARC
  5
573A
  8
GAWA
 10
309.14363679757849
 20
49.909144823024207
 30
0.0
 40
15.26700142214073
 50
293.2242006730375
 51
301.90260550447471
  0
ARC
  5
573B
  8
GAWA
 62
     9
 10
306.28577153095989
 20
21.141843702153139
 30
0.0
 40
21.85224694831355
 50
60.000000000000682
 51
66.775799326965455
  0
ARC
  5
573C
  8
GAWA
 62
     9
 10
326.33773356428247
 20
21.14184370215575
 30
0.0
 40
21.852246948310601
 50
114.3148105519389
 51
119.9999999999999
  0
ARC
  5
573D
  8
GAWA
 10
326.33773356428242
 20
55.872860735310638
 30
0.0
 40
21.752246948310692
 50
233.22420067303531
 51
240.0000000000002
  0
ARC
  5
573E
  8
GAWA
 10
326.33773356428242
 20
55.872860735310638
 30
0.0
 40
21.85224694831069
 50
233.22420067303531
 51
240.0000000000002
  0
ARC
  5
573F
  8
GAWA
 62
     9
 10
336.36371458094533
 20
38.507352218732919
 30
0.0
 40
21.85224694831285
 50
179.9999999999994
 51
180.800524642721
  0
ARC
  5
5740
  8
GAWA
 62
     9
 10
320.313461394591
 20
29.20174975437542
 30
0.0
 40
11.78974523426727
 50
130.74312653317099
 51
136.00518752840429
  0
ARC
  5
5741
  8
GAWA
 10
311.82141377237048
 20
40.335627935032299
 30
0.0
 40
5.3072215030479697
 50
265.29735379110639
 51
283.9948124715944
  0
ARC
  5
5742
  8
GAWA
 62
     9
 10
311.43962172485777
 20
35.694426176683237
 30
0.0
 40
0.6003428349650383
 50
154.70264620889
 51
209.9999999999975
  0
ARC
  5
5743
  8
GAWA
 62
     8
 10
311.43962172485772
 20
35.694426176683208
 30
0.0
 40
0.6003428349649341
 50
209.99999999999909
 51
265.29735379110878
  0
ARC
  5
5744
  8
GAWA
 62
     8
 10
311.43962172485772
 20
35.694426176683208
 30
0.0
 40
0.6503428349649341
 50
209.99999999999909
 51
265.29735379110878
  0
ARC
  5
5745
  8
GAWA
 62
     9
 10
315.64991637543392
 20
33.704466909617132
 30
0.0
 40
5.3072215030485852
 50
136.00518752840489
 51
154.70264620888969
  0
ARC
  5
5746
  8
GAWA
 62
     9
 10
311.43962172485777
 20
35.694426176683237
 30
0.0
 40
0.6503428349650383
 50
154.70264620889
 51
209.9999999999975
  0
ARC
  5
5747
  8
GAWA
 62
     9
 10
336.36371458094533
 20
38.507352218732919
 30
0.0
 40
21.85224694831285
 50
184.09925597600829
 51
186.0535392856811
  0
ARC
  5
5748
  8
GAWA
 62
     9
 10
326.37149510275702
 20
37.320132506578119
 30
0.0
 40
11.789745234264981
 50
190.6994093466266
 51
196.00518752840529
  0
ARC
  5
5749
  8
GAWA
 10
326.33773356428588
 20
55.872860735316159
 30
0.0
 40
21.752246948317229
 50
239.9999999999996
 51
240.92134091666699
  0
ARC
  5
574A
  8
GAWA
 10
326.33773356428588
 20
55.872860735316159
 30
0.0
 40
21.85224694831723
 50
239.9999999999996
 51
240.68969923106741
  0
ARC
  5
574B
  8
GAWA
 10
309.8396490143445
 20
48.287119125205187
 30
0.0
 40
13.451951742875909
 50
283.99481247159417
 51
293.22420067303392
  0
ARC
  5
574C
  8
GAWA
 10
309.8396490143445
 20
48.287119125205187
 30
0.0
 40
13.50195174287591
 50
283.99481247159417
 51
293.22420067303392
  0
ARC
  5
574D
  8
GAWA
 10
320.31346139458822
 20
47.81295468308825
 30
0.0
 40
11.739745234263481
 50
223.99481247159579
 51
233.22420067304071
  0
ARC
  5
574E
  8
GAWA
 10
320.31346139458822
 20
47.81295468308825
 30
0.0
 40
11.78974523426348
 50
223.99481247159579
 51
233.22420067304071
  0
ARC
  5
574F
  8
GAWA
 62
     9
 10
311.82141377237031
 20
36.679076502433681
 30
0.0
 40
5.3072215030482859
 50
76.005187528404534
 51
94.702646208890215
  0
ARC
  5
5750
  8
GAWA
 62
     9
 10
311.43962172485789
 20
41.320278260783041
 30
0.0
 40
0.600342834965018
 50
94.702646208898116
 51
150.00000000000301
  0
ARC
  5
5751
  8
GAWA
 62
     8
 10
311.43962172485777
 20
41.320278260782942
 30
0.0
 40
0.6003428349649821
 50
149.99999999999099
 51
205.29735379109451
  0
ARC
  5
5752
  8
GAWA
 10
315.64991637543358
 20
43.31023752784894
 30
0.0
 40
5.3072215030483179
 50
205.29735379110431
 51
223.9948124715948
  0
ARC
  5
5753
  8
GAWA
 62
     8
 10
311.43962172485777
 20
41.320278260782942
 30
0.0
 40
0.6503428349649822
 50
149.99999999999099
 51
205.29735379109451
  0
ARC
  5
5754
  8
GAWA
 62
     9
 10
311.43962172485789
 20
41.320278260783041
 30
0.0
 40
0.6503428349650181
 50
94.702646208898116
 51
150.00000000000301
  0
ARC
  5
5755
  8
GAWA
 62
     9
 10
329.7700524666414
 20
39.014226253392422
 30
0.0
 40
15.26700142214105
 50
173.22420067303739
 51
181.90260550447459
  0
ARC
  5
5756
  8
GAWA
 62
     9
 10
328.01733089835511
 20
39.222474841238288
 30
0.0
 40
13.501951742875381
 50
163.994812471594
 51
173.22420067303381
  0
ARC
  5
5757
  8
GAWA
 62
     9
 10
310.25371883945411
 20
30.388969466532622
 30
0.0
 40
11.78974523426464
 50
66.77579932696149
 51
76.005187528404051
  0
ARC
  5
5758
  8
GAWA
 62
     9
 10
326.3377335642852
 20
21.141843702150599
 30
0.0
 40
21.852246948316441
 50
119.9999999999994
 51
125.7357276272698
  0
ARC
  5
5759
  8
GAWA
 10
296.25979051430051
 20
38.507352218733487
 30
0.0
 40
21.852246948310579
 50
359.11705802871478
 51
359.99999999999909
  0
ARC
  5
575A
  8
GAWA
 10
296.25979051430051
 20
38.507352218733487
 30
0.0
 40
21.752246948310582
 50
358.92610003923471
 51
359.99999999999909
  0
ARC
  5
575B
  8
GAWA
 10
306.28577153096012
 20
55.872860735312379
 30
0.0
 40
21.752246948312798
 50
299.99999999999977
 51
306.77579932696472
  0
ARC
  5
575C
  8
GAWA
 10
306.28577153096012
 20
55.872860735312379
 30
0.0
 40
21.8522469483128
 50
299.99999999999977
 51
306.77579932696472
  0
ARC
  5
575D
  8
GAWA
 10
320.80209132287331
 20
40.335627935033067
 30
0.0
 40
5.3072215030487104
 50
256.0051875284052
 51
274.70264620888997
  0
ARC
  5
575E
  8
GAWA
 62
     9
 10
311.07827773016538
 20
28.012462689755889
 30
0.0
 40
13.50195174287586
 50
43.994812471594891
 51
48.985695614697242
  0
ARC
  5
575F
  8
GAWA
 10
326.33773356428588
 20
55.872860735316159
 30
0.0
 40
21.85224694831723
 50
244.48677157347129
 51
246.77579932696321
  0
ARC
  5
5760
  8
GAWA
 10
326.33773356428588
 20
55.872860735316159
 30
0.0
 40
21.752246948317229
 50
244.56351767686249
 51
246.77579932696321
  0
ARC
  5
5761
  8
GAWA
 10
306.25200999248801
 20
37.320132506577671
 30
0.0
 40
11.73974523426347
 50
343.99481247159491
 51
348.90109804237972
  0
ARC
  5
5762
  8
GAWA
 10
296.25979051430051
 20
38.507352218733487
 30
0.0
 40
21.752246948310582
 50
354.43836041756538
 51
355.71430934205762
  0
ARC
  5
5763
  8
GAWA
 10
296.25979051430051
 20
38.507352218733487
 30
0.0
 40
21.852246948310579
 50
354.30488875235619
 51
355.85644349806188
  0
ARC
  5
5764
  8
GAWA
 10
306.25200999248801
 20
37.320132506577671
 30
0.0
 40
11.789745234263471
 50
343.99481247159491
 51
348.8521063160955
  0
ARC
  5
5765
  8
GAWA
 10
322.36978625578979
 20
46.625734970935511
 30
0.0
 40
11.739745234266451
 50
246.77579932696381
 51
256.00518752840492
  0
ARC
  5
5766
  8
GAWA
 10
322.36978625578979
 20
46.625734970935511
 30
0.0
 40
11.78974523426645
 50
246.77579932696381
 51
256.00518752840492
  0
ARC
  5
5767
  8
GAWA
 62
     9
 10
321.1838833703859
 20
35.694426176683272
 30
0.0
 40
0.6003428349649537
 50
329.9999999999954
 51
25.297353791101141
  0
ARC
  5
5768
  8
GAWA
 62
     8
 10
321.1838833703859
 20
35.69442617668328
 30
0.0
 40
0.60034283496501
 50
274.7026462088894
 51
329.99999999999682
  0
ARC
  5
5769
  8
GAWA
 62
     8
 10
321.1838833703859
 20
35.69442617668328
 30
0.0
 40
0.6503428349650099
 50
274.7026462088894
 51
329.99999999999682
  0
ARC
  5
576A
  8
GAWA
 62
     9
 10
316.97358871981038
 20
33.704466909617608
 30
0.0
 40
5.3072215030478374
 50
25.29735379110339
 51
43.99481247159553
  0
ARC
  5
576B
  8
GAWA
 62
     9
 10
321.1838833703859
 20
35.694426176683272
 30
0.0
 40
0.6503428349649538
 50
329.9999999999954
 51
25.297353791101141
  0
ARC
  5
576C
  8
GAWA
 10
312.31004370065421
 20
47.812954683089373
 30
0.0
 40
11.73974523426511
 50
306.77579932696131
 51
316.00518752840378
  0
ARC
  5
576D
  8
GAWA
 10
312.31004370065421
 20
47.812954683089373
 30
0.0
 40
11.78974523426511
 50
306.77579932696131
 51
316.00518752840378
  0
ARC
  5
576E
  8
GAWA
 62
     9
 10
320.8020913228732
 20
36.679076502433247
 30
0.0
 40
5.3072215030486198
 50
85.297353791107113
 51
103.99481247159341
  0
ARC
  5
576F
  8
GAWA
 62
     9
 10
310.0215683786455
 20
26.598685579782781
 30
0.0
 40
15.267001422140879
 50
53.704914823739969
 51
56.2079984048098
  0
ARC
  5
5770
  8
GAWA
 62
     9
 10
322.36978625578911
 20
30.38896946653384
 30
0.0
 40
11.78974523426332
 50
103.99481247159591
 51
109.8781563158183
  0
ARC
  5
5771
  8
GAWA
 62
     9
 10
310.0215683786455
 20
26.598685579782781
 30
0.0
 40
15.267001422140879
 50
61.16456129043879
 51
61.902605504473577
  0
ARC
  5
5772
  8
GAWA
 10
306.25200999248472
 20
39.694571930887761
 30
0.0
 40
11.7397452342669
 50
6.7757993269635133
 51
16.005187528404559
  0
ARC
  5
5773
  8
GAWA
 10
296.2597905142942
 20
38.507352218732642
 30
0.0
 40
21.752246948316781
 50
0.0000000000013041
 51
6.7757993269648829
  0
ARC
  5
5774
  8
GAWA
 10
306.25200999248472
 20
39.694571930887761
 30
0.0
 40
11.789745234266899
 50
6.7757993269635133
 51
16.005187528404559
  0
ARC
  5
5775
  8
GAWA
 10
296.2597905142942
 20
38.507352218732642
 30
0.0
 40
21.852246948316779
 50
0.0000000000013041
 51
6.7757993269648829
  0
ARC
  5
5776
  8
GAWA
 62
     9
 10
321.1838833703859
 20
41.320278260783041
 30
0.0
 40
0.6003428349649075
 50
29.999999999997598
 51
85.297353791104825
  0
ARC
  5
5777
  8
GAWA
 62
     8
 10
321.1838833703859
 20
41.320278260782942
 30
0.0
 40
0.6003428349650019
 50
334.70264620889679
 51
30.000000000002139
  0
ARC
  5
5778
  8
GAWA
 10
316.97358871980981
 20
43.310237527848983
 30
0.0
 40
5.3072215030484902
 50
316.0051875284056
 51
334.70264620889122
  0
ARC
  5
5779
  8
GAWA
 62
     8
 10
321.1838833703859
 20
41.320278260782942
 30
0.0
 40
0.6503428349650019
 50
334.70264620889679
 51
30.000000000002139
  0
ARC
  5
577A
  8
GAWA
 62
     9
 10
321.1838833703859
 20
41.320278260783041
 30
0.0
 40
0.6503428349649076
 50
29.999999999997598
 51
85.297353791104825
  0
TEXT
  5
577B
  8
GAWA
 62
     9
 10
312.65040001292579
 20
48.024280575539571
 30
0.0
 40
4.0
  1
番号
  0
ARC
  5
577C
  8
GAWA
 62
     8
 10
316.31175254762178
 20
44.133204302832851
 30
0.0
 40
0.6003428349650001
 50
34.70264620889246
 51
90.0
  0
ARC
  5
577D
  8
GAWA
 62
     8
 10
316.31175254762178
 20
44.133204302832851
 30
0.0
 40
0.6503428349650001
 50
34.70264620889246
 51
90.0
  0
ARC
  5
577E
  8
GAWA
 62
     9
 10
316.31175254762178
 20
44.133204302833022
 30
0.0
 40
0.6003428349648388
 50
90.0
 51
145.29735379110949
  0
ARC
  5
577F
  8
GAWA
 62
     9
 10
316.31175254762178
 20
44.133204302833022
 30
0.0
 40
0.6503428349648388
 50
90.0
 51
145.29735379110949
  0
SOLID
  5
5780
  8
GAWA
 62
     8
 10
331.26337390477022
 20
44.50733799376151
 30
0.0
 11
334.8633739047703
 21
43.523467993761507
 31
0.0
 12
331.26337390477022
 22
43.900819993761509
 32
0.0
 13
334.8633739047703
 23
42.91694999376152
 33
0.0
  0
SOLID
  5
5781
  8
GAWA
 62
     8
 10
327.6633739047702
 20
43.523467993761507
 30
0.0
 11
331.26337390477022
 21
44.50733799376151
 31
0.0
 12
327.6633739047702
 22
42.91694999376152
 32
0.0
 13
331.26337390477022
 23
43.900819993761509
 33
0.0
  0
SOLID
  5
5782
  8
GAWA
 62
     8
 10
337.31337390477017
 20
44.345988993761523
 30
0.0
 11
338.31337390477017
 21
44.345988993761523
 31
0.0
 12
337.31337390477017
 22
44.034580993761523
 32
0.0
 13
338.31337390477017
 23
44.034580993761523
 33
0.0
  0
SOLID
  5
5783
  8
GAWA
 62
     8
 10
338.8633739047703
 20
44.50733799376151
 30
0.0
 11
339.66337390477031
 21
44.50733799376151
 31
0.0
 12
338.8633739047703
 22
44.034580993761523
 32
0.0
 13
339.66337390477031
 23
43.534576993761519
 33
0.0
  0
SOLID
  5
5784
  8
GAWA
 62
     8
 10
340.07821390477028
 20
44.345988993761523
 30
0.0
 11
341.02821390477021
 21
44.345988993761523
 31
0.0
 12
340.07821390477028
 22
43.297401993761511
 32
0.0
 13
341.02821390477021
 23
43.497406993761508
 33
0.0
  0
SOLID
  5
5785
  8
GAWA
 62
     8
 10
333.01336390477019
 20
42.132342993761533
 30
0.0
 11
334.01336390477019
 21
42.50733799376151
 31
0.0
 12
333.01336390477019
 22
40.98233899376153
 32
0.0
 13
334.01336390477019
 23
40.607343993761532
 33
0.0
  0
SOLID
  5
5786
  8
GAWA
 62
     8
 10
330.3298039047703
 20
39.007338993761522
 30
0.0
 11
333.32981390477022
 21
39.007338993761522
 31
0.0
 12
329.32980390477019
 22
38.507342993761512
 32
0.0
 13
334.32979390477033
 23
38.507342993761512
 33
0.0
  0
SOLID
  5
5787
  8
GAWA
 62
     8
 10
329.32980390477019
 20
40.107344993761508
 30
0.0
 11
333.92979390477018
 21
40.107344993761508
 31
0.0
 12
330.3298039047703
 22
39.60734299376152
 32
0.0
 13
333.32981390477022
 23
39.60734299376152
 33
0.0
  0
SOLID
  5
5788
  8
GAWA
 62
     8
 10
329.51337390477022
 20
40.98233899376153
 30
0.0
 11
333.01336390477019
 21
40.98233899376153
 31
0.0
 12
328.51337390477022
 22
40.607343993761532
 32
0.0
 13
334.01336390477019
 23
40.607343993761532
 33
0.0
  0
SOLID
  5
5789
  8
GAWA
 62
     8
 10
328.51337390477022
 20
42.50733799376151
 30
0.0
 11
334.01336390477019
 21
42.50733799376151
 31
0.0
 12
329.51337390477022
 22
42.132342993761533
 32
0.0
 13
333.01336390477019
 23
42.132342993761533
 33
0.0
  0
SOLID
  5
578A
  8
GAWA
 62
     8
 10
328.51337390477022
 20
42.50733799376151
 30
0.0
 11
329.51337390477022
 21
42.132342993761533
 31
0.0
 12
328.51337390477022
 22
40.607343993761532
 32
0.0
 13
329.51337390477022
 23
40.98233899376153
 33
0.0
  0
SOLID
  5
578B
  8
GAWA
 62
     8
 10
328.51337390477022
 20
40.607343993761532
 30
0.0
 11
329.49155390477023
 21
40.607343993761532
 31
0.0
 12
327.6633739047702
 22
38.507342993761512
 32
0.0
 13
328.64155390477021
 23
38.507342993761512
 33
0.0
  0
SOLID
  5
578C
  8
GAWA
 62
     8
 10
329.32980390477019
 20
40.107344993761508
 30
0.0
 11
330.3298039047703
 21
39.60734299376152
 31
0.0
 12
329.32980390477019
 22
38.507342993761512
 32
0.0
 13
330.3298039047703
 23
39.007338993761522
 33
0.0
  0
SOLID
  5
578D
  8
GAWA
 62
     8
 10
329.51337390477022
 20
41.707337993761527
 30
0.0
 11
333.01336390477019
 21
41.707337993761527
 31
0.0
 12
329.51337390477022
 22
41.407343993761508
 32
0.0
 13
333.01336390477019
 23
41.407343993761508
 33
0.0
  0
SOLID
  5
578E
  8
GAWA
 62
     8
 10
329.7633639047703
 20
43.344117993761508
 30
0.0
 11
332.76337390477022
 21
43.344117993761508
 31
0.0
 12
329.7633639047703
 22
42.894123993761511
 32
0.0
 13
332.76337390477022
 23
42.894123993761511
 33
0.0
  0
SOLID
  5
578F
  8
GAWA
 62
     8
 10
336.71338390477018
 20
42.276030993761523
 30
0.0
 11
338.91337390477031
 21
42.276030993761523
 31
0.0
 12
336.71338390477018
 22
41.976031993761517
 32
0.0
 13
338.91337390477031
 23
41.976031993761517
 33
0.0
  0
SOLID
  5
5790
  8
GAWA
 62
     8
 10
337.31337390477017
 20
40.054811993761511
 30
0.0
 11
338.31337390477017
 21
40.054811993761511
 31
0.0
 12
335.86337390477019
 22
38.507342993761512
 32
0.0
 13
336.86338390477027
 23
38.507342993761512
 33
0.0
  0
SOLID
  5
5791
  8
GAWA
 62
     8
 10
335.96337390477021
 20
40.554816993761513
 30
0.0
 11
339.66337390477031
 21
40.554816993761513
 31
0.0
 12
335.96337390477021
 22
40.054811993761511
 32
0.0
 13
339.66337390477031
 23
40.054811993761511
 33
0.0
  0
SOLID
  5
5792
  8
GAWA
 62
     8
 10
336.71338390477018
 20
41.526029993761519
 30
0.0
 11
338.91337390477031
 21
41.526029993761519
 31
0.0
 12
335.96337390477021
 22
41.076034993761517
 32
0.0
 13
339.66337390477031
 23
41.076034993761517
 33
0.0
  0
SOLID
  5
5793
  8
GAWA
 62
     8
 10
335.96337390477021
 20
43.076034993761517
 30
0.0
 11
339.66337390477031
 21
43.076034993761517
 31
0.0
 12
336.71338390477018
 22
42.726032993761521
 32
0.0
 13
338.91337390477031
 23
42.726032993761521
 33
0.0
  0
SOLID
  5
5794
  8
GAWA
 62
     8
 10
335.96337390477021
 20
44.034580993761523
 30
0.0
 11
338.8633739047703
 21
44.034580993761523
 31
0.0
 12
335.96337390477021
 22
43.534576993761519
 32
0.0
 13
339.66337390477031
 23
43.534576993761519
 33
0.0
  0
SOLID
  5
5795
  8
GAWA
 62
     8
 10
333.32981390477022
 20
39.60734299376152
 30
0.0
 11
333.92979390477018
 21
40.107344993761508
 31
0.0
 12
333.32981390477022
 22
39.60734299376152
 32
0.0
 13
334.32979390477033
 23
39.707344993761531
 33
0.0
  0
SOLID
  5
5796
  8
GAWA
 62
     8
 10
333.32981390477022
 20
39.60734299376152
 30
0.0
 11
334.32979390477033
 21
39.707344993761531
 31
0.0
 12
333.32981390477022
 22
39.007338993761522
 32
0.0
 13
334.32979390477033
 23
38.507342993761512
 33
0.0
  0
POLYLINE
  5
5797
  8
GAWA
 62
     8
 66
     1
 10
0.0
 20
0.0
 30
0.0
 70
     1
 40
0.4
 41
0.4
  0
VERTEX
  5
A03B
  8
GAWA
 62
     8
 10
333.7297939047703
 20
39.707344993761531
 30
0.0
 42
1.0
  0
VERTEX
  5
A03C
  8
GAWA
 62
     8
 10
334.12979390477022
 20
39.707344993761531
 30
0.0
 42
1.0
  0
SEQEND
  5
A03D
  8
GAWA
 62
     8
  0
SOLID
  5
5798
  8
GAWA
 62
     8
 10
335.96337390477021
 20
43.076034993761517
 30
0.0
 11
336.71338390477018
 21
42.726032993761521
 31
0.0
 12
335.96337390477021
 22
41.076034993761517
 32
0.0
 13
336.71338390477018
 23
41.526029993761519
 33
0.0
  0
SOLID
  5
5799
  8
GAWA
 62
     8
 10
338.91337390477031
 20
42.726032993761521
 30
0.0
 11
339.66337390477031
 21
43.076034993761517
 31
0.0
 12
338.91337390477031
 22
41.526029993761519
 32
0.0
 13
339.66337390477031
 23
41.076034993761517
 33
0.0
  0
SOLID
  5
579A
  8
GAWA
 62
     8
 10
337.31337390477017
 20
41.076034993761517
 30
0.0
 11
338.31337390477017
 21
41.076034993761517
 31
0.0
 12
337.31337390477017
 22
40.554816993761513
 32
0.0
 13
338.31337390477017
 23
40.554816993761513
 33
0.0
  0
SOLID
  5
579B
  8
GAWA
 62
     8
 10
337.31337390477017
 20
41.976031993761517
 30
0.0
 11
338.31337390477017
 21
41.976031993761517
 31
0.0
 12
337.31337390477017
 22
41.526029993761519
 32
0.0
 13
338.31337390477017
 23
41.526029993761519
 33
0.0
  0
SOLID
  5
579C
  8
GAWA
 62
     8
 10
337.31337390477017
 20
42.726032993761521
 30
0.0
 11
338.31337390477017
 21
42.726032993761521
 31
0.0
 12
337.31337390477017
 22
42.276030993761523
 32
0.0
 13
338.31337390477017
 23
42.276030993761523
 33
0.0
  0
SOLID
  5
579D
  8
GAWA
 62
     8
 10
337.31337390477017
 20
43.534576993761519
 30
0.0
 11
338.31337390477017
 21
43.534576993761519
 31
0.0
 12
337.31337390477017
 22
43.076034993761517
 32
0.0
 13
338.31337390477017
 23
43.076034993761517
 33
0.0
  0
SOLID
  5
579E
  8
GAWA
 62
     8
 10
338.69738390477022
 20
39.160169993761521
 30
0.0
 11
339.66337390477031
 21
39.560168993761522
 31
0.0
 12
338.58964390477018
 22
38.507342993761512
 32
0.0
 13
339.48964390477028
 23
38.507342993761512
 33
0.0
  0
SOLID
  5
579F
  8
GAWA
 62
     8
 10
337.82393756743392
 20
39.560168993761522
 30
0.0
 11
339.66337390477031
 21
39.560168993761522
 31
0.0
 12
337.49551390477029
 22
39.160169993761521
 32
0.0
 13
338.69738390477022
 23
39.160169993761521
 33
0.0
  0
SOLID
  5
57A0
  8
GAWA
 62
     8
 10
340.07821390477028
 20
43.297401993761511
 30
0.0
 11
341.02821390477021
 21
43.497406993761508
 31
0.0
 12
340.47821390477031
 22
42.89740199376152
 32
0.0
 13
341.02821390477021
 23
43.497406993761508
 33
0.0
  0
POLYLINE
  5
57A1
  8
GAWA
 62
     8
 66
     1
 10
0.0
 20
0.0
 30
0.0
 70
     1
 40
0.4
 41
0.4
  0
VERTEX
  5
A03E
  8
GAWA
 62
     8
 10
340.27821390477021
 20
43.297401993761511
 30
0.0
 42
1.142857142857177
  0
VERTEX
  5
A03F
  8
GAWA
 62
     8
 10
340.62821390477018
 20
43.297401993761511
 30
0.0
 42
1.142857142857177
  0
SEQEND
  5
A040
  8
GAWA
 62
     8
  0
TEXT
  5
57A2
  8
GAWA
 62
     9
 10
218.21360708040771
 20
60.060731414868101
 30
0.0
 40
4.0
  1
三
 72
     4
 11
220.0802737470743
 21
61.794064748201443
 31
0.0
  0
LINE
  5
57A3
  8
GAWA
 62
     9
 10
378.0
 20
64.999999999999972
 30
0.0
 11
378.0
 21
46.999999999999972
 31
0.0
  0
LINE
  5
57A4
  8
GAWA
 62
     9
 10
357.0
 20
64.999999999999972
 30
0.0
 11
357.0
 21
46.999999999999972
 31
0.0
  0
LINE
  5
57A5
  8
GAWA
 62
     9
 10
347.0
 20
64.999999999999972
 30
0.0
 11
347.0
 21
46.999999999999972
 31
0.0
  0
LINE
  5
57A6
  8
GAWA
 10
399.0
 20
64.999999999999972
 30
0.0
 11
399.0
 21
0.0
 31
0.0
  0
TEXT
  5
57A7
  8
GAWA
 62
     9
 10
343.85075656873249
 20
32.613309352517973
 30
0.0
 40
4.0
  1
産業機器事業部
  0
SOLID
  5
57A8
  8
GAWA
 62
     8
 10
373.1136139047702
 20
42.507343993761523
 30
0.0
 11
374.51360390477032
 21
42.507343993761523
 31
0.0
 12
374.4634239047702
 22
38.507342993761512
 32
0.0
 13
375.8634139047702
 23
38.507342993761512
 33
0.0
  0
SOLID
  5
57A9
  8
GAWA
 62
     8
 10
372.91113918019607
 20
43.107353699402481
 30
0.0
 11
373.98722174198349
 21
44.067211402639458
 31
0.0
 12
372.91113918019607
 22
43.107353699402481
 32
0.0
 13
374.31114390477018
 23
43.107348993761519
 33
0.0
  0
SOLID
  5
57AA
  8
GAWA
 62
     8
 10
368.66340390477029
 20
43.107348993761519
 30
0.0
 11
375.8634139047702
 21
43.107348993761519
 31
0.0
 12
368.66340390477029
 22
42.507343993761523
 32
0.0
 13
375.8634139047702
 23
42.507343993761523
 33
0.0
  0
TEXT
  5
57AB
  8
GAWA
 62
     9
 10
358.29532692117311
 20
47.997751798561147
 30
0.0
 40
4.0
  1
材　　質
 72
     4
 11
367.36199358783978
 21
49.997751798561147
 31
0.0
  0
SOLID
  5
57AC
  8
GAWA
 62
     8
 10
352.76339390477023
 20
44.50733799376151
 30
0.0
 11
358.96339390477033
 21
44.50733799376151
 31
0.0
 12
352.76339390477023
 22
43.70734099376152
 32
0.0
 13
358.96339390477033
 23
43.70734099376152
 33
0.0
  0
SOLID
  5
57AD
  8
GAWA
 62
     8
 10
352.26339390477023
 20
39.507340993761517
 30
0.0
 11
359.46339390477033
 21
39.507340993761517
 31
0.0
 12
352.26339390477023
 22
38.507342993761512
 32
0.0
 13
359.46339390477033
 23
38.507342993761512
 33
0.0
  0
SOLID
  5
57AE
  8
GAWA
 62
     8
 10
347.66338390477023
 20
44.50733799376151
 30
0.0
 11
348.6633939047702
 21
44.50733799376151
 31
0.0
 12
347.66338390477023
 22
38.907342993761517
 32
0.0
 13
348.6633939047702
 23
39.507340993761517
 33
0.0
  0
SOLID
  5
57AF
  8
GAWA
 62
     8
 10
344.06338390477021
 20
42.50733799376151
 30
0.0
 11
347.06445390477018
 21
44.50733799376151
 31
0.0
 12
344.06338390477021
 22
41.50734099376151
 32
0.0
 13
347.06445390477018
 23
43.50734099376151
 33
0.0
  0
SOLID
  5
57B0
  8
GAWA
 62
     8
 10
348.6633939047702
 20
39.507340993761517
 30
0.0
 11
351.26338390477019
 21
39.507340993761517
 31
0.0
 12
348.06338390477021
 22
38.507342993761533
 32
0.0
 13
351.26338390477019
 23
38.507342993761512
 33
0.0
  0
SOLID
  5
57B1
  8
GAWA
 62
     8
 10
348.6633939047702
 20
43.016754993761523
 30
0.0
 11
351.26338390477019
 21
43.681631993761513
 31
0.0
 12
348.6633939047702
 22
42.016757993761509
 32
0.0
 13
351.26338390477019
 23
42.68163499376152
 33
0.0
  0
SOLID
  5
57B2
  8
GAWA
 62
     8
 10
345.16337390477031
 20
42.240405993761513
 30
0.0
 11
346.16338390477023
 21
42.906835993761511
 31
0.0
 12
345.16337390477031
 22
38.507342993761512
 32
0.0
 13
346.16338390477023
 23
38.507342993761512
 33
0.0
  0
SOLID
  5
57B3
  8
GAWA
 62
     8
 10
341.6803939047702
 20
42.89740199376152
 30
0.0
 11
342.68039390477031
 21
42.89740199376152
 31
0.0
 12
341.41649390477022
 22
41.406966993761507
 32
0.0
 13
342.17883390477022
 23
40.064729993761517
 33
0.0
  0
SOLID
  5
57B4
  8
GAWA
 62
     8
 10
347.66338390477023
 20
38.907342993761517
 30
0.0
 11
348.6633939047702
 21
39.507340993761517
 31
0.0
 12
348.06338390477021
 22
38.507342993761533
 32
0.0
 13
348.6633939047702
 23
39.507340993761517
 33
0.0
  0
POLYLINE
  5
57B5
  8
GAWA
 62
     8
 66
     1
 10
0.0
 20
0.0
 30
0.0
 70
     1
 40
0.4
 41
0.4
  0
VERTEX
  5
A041
  8
GAWA
 62
     8
 10
347.86338390477027
 20
38.907342993761517
 30
0.0
 42
1.0
  0
VERTEX
  5
A042
  8
GAWA
 62
     8
 10
348.26338390477031
 20
38.907342993761517
 30
0.0
 42
1.0
  0
SEQEND
  5
A043
  8
GAWA
 62
     8
  0
SOLID
  5
57B6
  8
GAWA
 62
     8
 10
355.36339390477031
 20
43.70734099376152
 30
0.0
 11
356.36339390477019
 21
43.70734099376152
 31
0.0
 12
355.36339390477031
 22
39.507340993761517
 32
0.0
 13
356.36339390477019
 23
39.507340993761517
 33
0.0
  0
TEXT
  5
57B7
  8
GAWA
 62
     9
 10
350.07413187270868
 20
47.997751798561147
 30
0.0
 40
4.0
  1
数
 72
     4
 11
351.94079853937529
 21
49.997751798561147
 31
0.0
  0
SOLID
  5
57B8
  8
GAWA
 62
     8
 10
372.47245701467949
 20
44.407335993761521
 30
0.0
 11
373.51347090701222
 21
44.407335993761521
 31
0.0
 12
372.91113390477022
 22
43.107348993761519
 32
0.0
 13
373.98722174198349
 23
44.067211402639458
 33
0.0
  0
POLYLINE
  5
57B9
  8
GAWA
 62
     8
 66
     1
 10
0.0
 20
0.0
 30
0.0
 70
     1
 40
0.5
 41
0.5
  0
VERTEX
  5
A044
  8
GAWA
 62
     8
 10
373.26347090701222
 20
43.907335993761521
 30
0.0
 42
1.0
  0
VERTEX
  5
A045
  8
GAWA
 62
     8
 10
373.76347090701222
 20
43.907335993761521
 30
0.0
 42
1.0
  0
SEQEND
  5
A046
  8
GAWA
 62
     8
  0
POLYLINE
  5
57BA
  8
GAWA
 62
     8
 66
     1
 10
0.0
 20
0.0
 30
0.0
 40
0.6
 41
0.6
  0
VERTEX
  5
A047
  8
GAWA
 62
     8
 10
370.7634039047702
 20
44.107330993761522
 30
0.0
  0
VERTEX
  5
A048
  8
GAWA
 62
     8
 10
372.38773871960228
 20
44.107330993761522
 30
0.0
 42
-0.3217983416331205
  0
VERTEX
  5
A049
  8
GAWA
 62
     8
 10
373.05099072015548
 20
43.631154101956596
 30
0.0
  0
VERTEX
  5
A04A
  8
GAWA
 62
     8
 10
373.1953847621503
 20
43.203273182987978
 30
0.0
  0
SEQEND
  5
A04B
  8
GAWA
 62
     8
  0
SOLID
  5
57BB
  8
GAWA
 62
     8
 10
365.01339390477023
 20
44.50733799376151
 30
0.0
 11
366.0134039047702
 21
44.50733799376151
 31
0.0
 12
365.01339390477023
 22
43.794315993761508
 32
0.0
 13
366.0134039047702
 23
43.794315993761508
 33
0.0
  0
SOLID
  5
57BC
  8
GAWA
 62
     8
 10
363.46338390477018
 20
44.50733799376151
 30
0.0
 11
364.4633839047703
 21
44.50733799376151
 31
0.0
 12
363.46338390477018
 22
43.594310993761511
 32
0.0
 13
364.4633839047703
 23
43.794315993761508
 33
0.0
  0
SOLID
  5
57BD
  8
GAWA
 62
     8
 10
361.36838390477033
 20
44.50733799376151
 30
0.0
 11
362.36838390477033
 21
44.50733799376151
 31
0.0
 12
361.36838390477033
 22
43.794315993761508
 32
0.0
 13
362.36838390477033
 23
43.794315993761508
 33
0.0
  0
SOLID
  5
57BE
  8
GAWA
 62
     8
 10
365.01339390477023
 20
41.948482993761509
 30
0.0
 11
366.0134039047702
 21
41.948482993761509
 31
0.0
 12
365.01339390477023
 22
38.507336993761513
 32
0.0
 13
366.0134039047702
 23
38.507336993761513
 33
0.0
  0
SOLID
  5
57BF
  8
GAWA
 62
     8
 10
363.46338390477018
 20
42.548486993761507
 30
0.0
 11
367.66340390477018
 21
42.548486993761507
 31
0.0
 12
363.46338390477018
 22
41.948482993761509
 32
0.0
 13
367.66340390477018
 23
41.948482993761509
 33
0.0
  0
SOLID
  5
57C0
  8
GAWA
 62
     8
 10
365.01339390477023
 20
43.194310993761519
 30
0.0
 11
366.0134039047702
 21
43.194310993761519
 31
0.0
 12
365.01339390477023
 22
42.548486993761507
 32
0.0
 13
366.0134039047702
 23
42.548486993761507
 33
0.0
  0
SOLID
  5
57C1
  8
GAWA
 62
     8
 10
364.4633839047703
 20
43.794315993761508
 30
0.0
 11
367.66340390477018
 21
43.794315993761508
 31
0.0
 12
363.86338390477027
 22
43.194310993761519
 32
0.0
 13
367.66340390477018
 23
43.194310993761519
 33
0.0
  0
SOLID
  5
57C2
  8
GAWA
 62
     8
 10
361.36838390477033
 20
43.194317993761508
 30
0.0
 11
362.36838390477033
 21
43.194317993761508
 31
0.0
 12
361.36838390477033
 22
38.507336993761513
 32
0.0
 13
362.36838390477033
 23
38.507336993761513
 33
0.0
  0
SOLID
  5
57C3
  8
GAWA
 62
     8
 10
360.46839390477032
 20
43.794315993761508
 30
0.0
 11
363.2684039047702
 21
43.794315993761508
 31
0.0
 12
360.46839390477032
 22
43.194317993761508
 32
0.0
 13
363.2684039047702
 23
43.194317993761508
 33
0.0
  0
SOLID
  5
57C4
  8
GAWA
 62
     8
 10
360.46339390477033
 20
40.725807993761521
 30
0.0
 11
361.3576471442658
 21
42.52686281238995
 31
0.0
 12
360.46339390477033
 22
39.225809993761509
 32
0.0
 13
361.36838390477033
 23
41.048488993761516
 33
0.0
  0
SOLID
  5
57C5
  8
GAWA
 62
     8
 10
362.36838390477033
 20
42.548486993761507
 30
0.0
 11
363.2684039047702
 21
41.50734099376151
 31
0.0
 12
362.36838390477033
 22
41.34848499376151
 32
0.0
 13
363.2684039047702
 23
40.307337993761521
 33
0.0
  0
SOLID
  5
57C6
  8
GAWA
 62
     8
 10
363.46338390477018
 20
40.007341993761507
 30
0.0
 11
365.01339390477023
 21
41.948482993761509
 31
0.0
 12
363.46338390477018
 22
38.507342993761512
 32
0.0
 13
365.01339390477023
 23
40.448483993761513
 33
0.0
  0
SOLID
  5
57C7
  8
GAWA
 62
     8
 10
363.46338390477018
 20
43.594310993761511
 30
0.0
 11
364.4633839047703
 21
43.794315993761508
 31
0.0
 12
363.86338390477027
 22
43.194310993761519
 32
0.0
 13
364.4633839047703
 23
43.794315993761508
 33
0.0
  0
POLYLINE
  5
57C8
  8
GAWA
 62
     8
 66
     1
 10
0.0
 20
0.0
 30
0.0
 70
     1
 40
0.4
 41
0.4
  0
VERTEX
  5
A04C
  8
GAWA
 62
     8
 10
363.66338390477023
 20
43.594310993761511
 30
0.0
 42
1.0
  0
VERTEX
  5
A04D
  8
GAWA
 62
     8
 10
364.06338390477021
 20
43.594310993761511
 30
0.0
 42
1.0
  0
SEQEND
  5
A04E
  8
GAWA
 62
     8
  0
SOLID
  5
57C9
  8
GAWA
 62
     8
 10
368.66340390477029
 20
39.507340993761517
 30
0.0
 11
373.06340390477033
 21
40.404841993761522
 31
0.0
 12
368.66340390477029
 22
38.507342993761512
 32
0.0
 13
373.06340390477033
 23
39.404844993761522
 33
0.0
  0
SOLID
  5
57CA
  8
GAWA
 62
     8
 10
368.8634139047702
 20
41.707346993761519
 30
0.0
 11
373.06340390477033
 21
41.707346993761519
 31
0.0
 12
368.8634139047702
 22
41.107341993761523
 32
0.0
 13
373.06340390477033
 23
41.107341993761523
 33
0.0
  0
SOLID
  5
57CB
  8
GAWA
 62
     8
 10
366.0134039047702
 20
41.948482993761509
 30
0.0
 11
367.66340390477018
 21
40.007341993761507
 31
0.0
 12
366.0134039047702
 22
40.448483993761513
 32
0.0
 13
367.66340390477018
 23
38.507342993761512
 33
0.0
  0
SOLID
  5
57CC
  8
GAWA
 62
     8
 10
370.36339390477031
 20
41.107341993761523
 30
0.0
 11
371.36339390477019
 21
41.107341993761523
 31
0.0
 12
370.36339390477031
 22
39.854102993761522
 32
0.0
 13
371.36339390477019
 23
40.058079993761517
 33
0.0
  0
TEXT
  5
57CD
  8
GAWA
 62
     9
 10
379.1862494612933
 20
47.997751798561147
 30
0.0
 40
4.0
  1
備　　考
 72
     4
 11
388.25291612796002
 21
49.997751798561147
 31
0.0
  0
SOLID
  5
57CE
  8
GAWA
 62
     8
 10
389.8634139047702
 20
44.507344993761521
 30
0.0
 11
390.86342390477017
 21
44.507344993761521
 31
0.0
 12
389.8634139047702
 22
43.107335993761509
 32
0.0
 13
390.86342390477017
 23
43.107335993761509
 33
0.0
  0
SOLID
  5
57CF
  8
GAWA
 62
     8
 10
389.8634139047702
 20
42.50733799376151
 30
0.0
 11
390.86342390477017
 21
42.50733799376151
 31
0.0
 12
389.8634139047702
 22
39.507343993761523
 32
0.0
 13
390.86342390477017
 23
39.507343993761523
 33
0.0
  0
SOLID
  5
57D0
  8
GAWA
 62
     8
 10
388.8634139047702
 20
43.107335993761509
 30
0.0
 11
391.86342390477029
 21
43.107335993761509
 31
0.0
 12
388.8634139047702
 22
42.50733799376151
 32
0.0
 13
391.86342390477029
 23
42.50733799376151
 33
0.0
  0
SOLID
  5
57D1
  8
GAWA
 62
     8
 10
388.46343390477023
 20
39.507343993761523
 30
0.0
 11
392.26342390477032
 21
39.507343993761523
 31
0.0
 12
388.46343390477023
 22
38.507342993761512
 32
0.0
 13
392.26342390477032
 23
38.507342993761512
 33
0.0
  0
SOLID
  5
57D2
  8
GAWA
 62
     8
 10
380.46341390477022
 20
44.50733799376151
 30
0.0
 11
384.06341390477019
 21
43.307335993761512
 31
0.0
 12
380.46341390477022
 22
43.70734099376152
 32
0.0
 13
384.06341390477019
 23
42.50733799376151
 33
0.0
  0
SOLID
  5
57D3
  8
GAWA
 62
     8
 10
385.4634239047702
 20
44.50733799376151
 30
0.0
 11
388.26342390477032
 21
44.50733799376151
 31
0.0
 12
385.4634239047702
 22
43.907339993761511
 32
0.0
 13
388.26342390477032
 23
43.907339993761511
 33
0.0
  0
SOLID
  5
57D4
  8
GAWA
 62
     8
 10
374.36340390477022
 20
44.50733799376151
 30
0.0
 11
375.56341390477019
 21
44.50733799376151
 31
0.0
 12
374.36340390477022
 22
43.70734099376152
 32
0.0
 13
375.56341390477019
 23
43.70734099376152
 33
0.0
  0
SOLID
  5
57D5
  8
GAWA
 62
     8
 10
376.8634139047702
 20
43.307335993761512
 30
0.0
 11
380.46341390477022
 21
44.50733799376151
 31
0.0
 12
376.8634139047702
 22
42.50733799376151
 32
0.0
 13
380.46341390477022
 23
43.70734099376152
 33
0.0
  0
SOLID
  5
57D6
  8
GAWA
 62
     8
 10
376.8634139047702
 20
41.50734099376151
 30
0.0
 11
384.06341390477019
 21
41.50734099376151
 31
0.0
 12
376.8634139047702
 22
40.90734299376151
 32
0.0
 13
384.06341390477019
 23
40.90734299376151
 33
0.0
  0
SOLID
  5
57D7
  8
GAWA
 62
     8
 10
377.5432087490816
 20
39.393111993142107
 30
0.0
 11
381.73007390477022
 21
39.507343993761523
 31
0.0
 12
378.07078441094728
 22
38.507342993761512
 32
0.0
 13
384.06341390477019
 23
38.507342993761512
 33
0.0
  0
SOLID
  5
57D8
  8
GAWA
 62
     8
 10
378.3634139047702
 20
42.607340993761518
 30
0.0
 11
382.5634139047703
 21
42.607340993761518
 31
0.0
 12
378.3634139047702
 22
42.007342993761519
 32
0.0
 13
382.5634139047703
 23
42.007342993761519
 33
0.0
  0
SOLID
  5
57D9
  8
GAWA
 62
     8
 10
381.06340390477033
 20
40.307343993761521
 30
0.0
 11
382.5634139047703
 21
40.307343993761521
 31
0.0
 12
381.73007390477022
 22
39.507343993761523
 32
0.0
 13
384.06341390477019
 23
38.507342993761512
 33
0.0
  0
POLYLINE
  5
57DA
  8
GAWA
 62
     8
 66
     1
 10
0.0
 20
0.0
 30
0.0
 40
1.0
 41
1.0
  0
VERTEX
  5
A04F
  8
GAWA
 62
     8
 10
379.42377760206358
 20
41.14548397829877
 30
0.0
  0
VERTEX
  5
A050
  8
GAWA
 62
     8
 10
378.82537727371442
 20
40.040741372113672
 30
0.0
 42
0.5683264071760008
  0
VERTEX
  5
A051
  8
GAWA
 62
     8
 10
379.44088209750367
 20
39.00734399376153
 30
0.0
  0
VERTEX
  5
A052
  8
GAWA
 62
     8
 10
381.73007390477022
 20
39.00734399376153
 30
0.0
  0
SEQEND
  5
A053
  8
GAWA
 62
     8
  0
SOLID
  5
57DB
  8
GAWA
 62
     8
 10
378.3634139047702
 20
40.90734299376151
 30
0.0
 11
379.86342390477017
 21
40.90734299376151
 31
0.0
 12
377.5432087490816
 22
39.393111993142107
 32
0.0
 13
379.26502357642102
 23
39.802600387576419
 33
0.0
  0
POLYLINE
  5
57DC
  8
GAWA
 62
     8
 66
     1
 10
0.0
 20
0.0
 30
0.0
 70
     1
 40
0.6
 41
0.6
  0
VERTEX
  5
A054
  8
GAWA
 62
     8
 10
377.77078441094727
 20
39.10734299376152
 30
0.0
 42
1.0
  0
VERTEX
  5
A055
  8
GAWA
 62
     8
 10
378.37078441094718
 20
39.10734299376152
 30
0.0
 42
1.0
  0
SEQEND
  5
A056
  8
GAWA
 62
     8
  0
SOLID
  5
57DD
  8
GAWA
 62
     8
 10
386.26341390477029
 20
40.707328645906173
 30
0.0
 11
387.26342390477032
 21
41.707333993761523
 31
0.0
 12
386.26341390477029
 22
38.507342993761512
 32
0.0
 13
387.26342390477032
 23
38.507342993761512
 33
0.0
  0
SOLID
  5
57DE
  8
GAWA
 62
     8
 10
385.06342390477022
 20
43.307335993761512
 30
0.0
 11
388.06342390477022
 21
43.307335993761512
 31
0.0
 12
385.06342390477022
 22
42.707336993761508
 32
0.0
 13
387.06342390477022
 23
42.707336993761508
 33
0.0
  0
SOLID
  5
57DF
  8
GAWA
 62
     8
 10
387.06342390477022
 20
42.707336993761508
 30
0.0
 11
388.20484496056389
 21
42.648751049550732
 31
0.0
 12
385.06342390477022
 22
40.707342993761507
 32
0.0
 13
385.06342390477022
 23
39.507343993761523
 33
0.0
  0
SOLID
  5
57E0
  8
GAWA
 62
     8
 10
387.36342106125562
 20
41.807330725368871
 30
0.0
 11
387.26342390477032
 21
40.707328645905882
 31
0.0
 12
387.26342390477032
 22
41.707333993761523
 32
0.0
 13
387.26342390477032
 23
41.707333993761523
 33
0.0
  0
SOLID
  5
57E1
  8
GAWA
 62
     8
 10
387.36342107872991
 20
41.807330917592253
 30
0.0
 11
388.12052157667569
 21
41.050233793727827
 31
0.0
 12
387.26342390477032
 22
40.707328645906188
 32
0.0
 13
388.12052157667569
 23
39.85023479372785
 33
0.0
  0
SOLID
  5
57E2
  8
GAWA
 62
     8
 10
387.26342390477032
 20
40.707328645906188
 30
0.0
 11
388.12052157667569
 21
39.85023479372785
 31
0.0
 12
387.26342390477032
 22
40.707328645906188
 32
0.0
 13
387.26342390477032
 23
40.707328645906188
 33
0.0
  0
SOLID
  5
57E3
  8
GAWA
 62
     8
 10
388.12052157667569
 20
39.85023479372785
 30
0.0
 11
388.12052157667569
 21
41.050233793727827
 31
0.0
 12
387.26342390477032
 22
40.707328645906188
 32
0.0
 13
388.12052157667569
 23
39.85023479372785
 33
0.0
  0
LINE
  5
57E4
  8
GAWA
 62
     8
 10
387.26342390477032
 20
40.707328645906173
 30
0.0
 11
388.12052157667569
 21
39.85023479372785
 31
0.0
  0
SOLID
  5
57E5
  8
GAWA
 62
     8
 10
387.06342390477022
 20
42.707336993761508
 30
0.0
 11
388.26342390477032
 21
42.790172706231019
 31
0.0
 12
387.06342390477022
 22
42.707336993761508
 32
0.0
 13
388.20484494587851
 23
42.648751034865313
 33
0.0
  0
SOLID
  5
57E6
  8
GAWA
 62
     8
 10
387.06342390477022
 20
42.707336993761508
 30
0.0
 11
388.26342390477032
 21
43.107335993761517
 31
0.0
 12
387.06342390477022
 22
42.707336993761508
 32
0.0
 13
388.26342390477032
 23
42.790172706231019
 33
0.0
  0
SOLID
  5
57E7
  8
GAWA
 62
     8
 10
387.06342390477022
 20
42.707336993761508
 30
0.0
 11
388.06342390477022
 21
43.307335993761512
 31
0.0
 12
387.06342390477022
 22
42.707336993761508
 32
0.0
 13
388.26342390477032
 23
43.107335993761517
 33
0.0
  0
POLYLINE
  5
57E8
  8
GAWA
 62
     8
 66
     1
 10
0.0
 20
0.0
 30
0.0
 70
     1
 40
0.2
 41
0.2
  0
VERTEX
  5
A057
  8
GAWA
 62
     8
 10
387.9634239047702
 20
42.790172706230997
 30
0.0
 42
1.0
  0
VERTEX
  5
A058
  8
GAWA
 62
     8
 10
388.16342390477018
 20
42.790172706230997
 30
0.0
 42
1.0
  0
SEQEND
  5
A059
  8
GAWA
 62
     8
  0
POLYLINE
  5
57E9
  8
GAWA
 62
     8
 66
     1
 10
0.0
 20
0.0
 30
0.0
 70
     1
 40
0.2
 41
0.2
  0
VERTEX
  5
A05A
  8
GAWA
 62
     8
 10
387.9634239047702
 20
43.107335993761509
 30
0.0
 42
1.0
  0
VERTEX
  5
A05B
  8
GAWA
 62
     8
 10
388.16342390477018
 20
43.107335993761509
 30
0.0
 42
1.0
  0
SEQEND
  5
A05C
  8
GAWA
 62
     8
  0
LINE
  5
57EA
  8
GAWA
 10
8.0
 20
284.0
 30
0.0
 11
399.0
 21
284.0
 31
0.0
  0
LINE
  5
57EB
  8
GAWA
 10
8.0
 20
0.0
 30
0.0
 11
8.0
 21
284.0
 31
0.0
  0
LINE
  5
57EC
  8
GAWA
 10
399.0
 20
284.0
 30
0.0
 11
399.0
 21
0.0
 31
0.0
  0
LINE
  5
57ED
  8
GAWA
 62
     9
 10
298.0
 20
275.0
 30
0.0
 11
343.0
 21
275.0
 31
0.0
  0
TEXT
  5
57EE
  8
GAWA
 62
     9
 10
305.56599379975609
 20
275.7321607893457
 30
0.0
 40
2.5
  1
SPECIFICATIONS
  0
TEXT
  5
57EF
  8
GAWA
 62
     9
 10
302.77366093656502
 20
279.06349436202049
 30
0.0
 40
3.5
  1
納　入　仕　様　書
  0
LINE
  5
57F0
  8
GAWA
 62
     9
 10
298.0
 20
284.0
 30
0.0
 11
298.0
 21
275.0
 31
0.0
  0
LINE
  5
57F1
  8
GAWA
 62
     9
 10
343.0
 20
275.0
 30
0.0
 11
399.0
 21
275.0
 31
0.0
  0
LINE
  5
57F2
  8
GAWA
 62
     9
 10
343.0
 20
284.0
 30
0.0
 11
343.0
 21
275.0
 31
0.0
  0
TEXT
  5
57F3
  8
GAWA
 62
     9
 10
344.28486289830198
 20
275.83301056595081
 30
0.0
 40
2.0
  1
DWG.NO.
  0
TEXT
  5
57F4
  8
GAWA
 62
     9
 10
344.22757693808131
 20
279.4550762428434
 30
0.0
 40
3.0
  1
図 番
  0
LINE
  5
57F5
  8
GAWA
 62
     9
 10
6.0
 20
9.0
 30
0.0
 11
6.0
 21
44.000000000000028
 31
0.0
  0
LINE
  5
57F6
  8
GAWA
 62
     9
 10
2.5
 20
44.000000000000028
 30
0.0
 11
2.5
 21
9.0
 31
0.0
  0
LINE
  5
57F7
  8
GAWA
 62
     9
 10
6.0
 20
0.0
 30
0.0
 11
2.5
 21
0.0
 31
0.0
  0
LINE
  5
57F8
  8
GAWA
 62
     9
 10
2.5
 20
9.0
 30
0.0
 11
6.0
 21
9.0
 31
0.0
  0
LINE
  5
57F9
  8
GAWA
 62
     9
 10
2.5
 20
7.0
 30
0.0
 11
6.0
 21
7.0
 31
0.0
  0
LINE
  5
57FA
  8
GAWA
 62
     9
 10
2.5
 20
0.0
 30
0.0
 11
2.5
 21
7.0
 31
0.0
  0
LINE
  5
57FB
  8
GAWA
 62
     9
 10
6.0
 20
7.0
 30
0.0
 11
6.0
 21
0.0
 31
0.0
  0
LINE
  5
57FC
  8
GAWA
 62
     9
 10
6.0
 20
44.000000000000028
 30
0.0
 11
2.5
 21
44.000000000000028
 31
0.0
  0
LINE
  5
57FD
  8
GAWA
 10
399.0
 20
0.0
 30
0.0
 11
8.0
 21
0.0
 31
0.0
  0
ENDBLK
  5
57FF
  8
0
  0
BLOCK
  8
0
  2
A3BD
 70
     0
 10
0.0
 20
0.0
 30
0.0
  3
A3BD
  1

  0
INSERT
  5
5801
  8
0
  2
TYUUKI
 10
0.0
 20
0.0
 30
0.0
  0
INSERT
  5
5802
  8
0
  2
WAKU
 10
0.0
 20
0.0
 30
0.0
  0
ENDBLK
  5
5804
  8
0
  0
BLOCK
  8
0
  2
*D23
 70
     1
 10
0.0
 20
0.0
 30
0.0
  3
*D23
  1

  0
LINE
  5
9CEC
  8
SCALE
 10
1609.92292348402
 20
3126.6778740979048
 30
0.0
 11
1609.92292348402
 21
2918.4793202834348
 31
0.0
  0
LINE
  5
9CED
  8
SCALE
 10
1059.92292348402
 20
3165.7734580541701
 30
0.0
 11
1059.92292348402
 21
2918.4793202834348
 31
0.0
  0
LINE
  5
9CEE
  8
SCALE
 10
1589.92292348402
 20
2936.4793202834348
 30
0.0
 11
1079.92292348402
 21
2936.4793202834348
 31
0.0
  0
INSERT
  5
9CEF
  8
SCALE
  2
YAZ1
 10
1609.92292348402
 20
2936.4793202834348
 30
0.0
 41
20.0
 42
20.0
 43
20.0
  0
INSERT
  5
9CF0
  8
SCALE
  2
YAZ1
 10
1059.92292348402
 20
2936.4793202834348
 30
0.0
 41
20.0
 42
20.0
 43
20.0
 50
180.0
  0
INSERT
  5
9CF1
  8
0
  2
*U58
 10
0.0
 20
0.0
 30
0.0
  0
POINT
  5
9CF2
  8
DEFPOINTS
 62
     0
 10
1609.92292348402
 20
3127.6778740979048
 30
0.0
  0
POINT
  5
9CF3
  8
DEFPOINTS
 62
     0
 10
1059.92292348402
 20
3166.7734580541701
 30
0.0
  0
POINT
  5
9CF4
  8
DEFPOINTS
 62
     0
 10
1059.92292348402
 20
2936.4793202834348
 30
0.0
  0
ENDBLK
  5
5A12
  8
0
  0
BLOCK
  8
0
  2
GENAXEH
 70
     0
 10
0.0
 20
0.0
 30
0.0
  3
GENAXEH
  1

  0
LINE
  5
617B
  8
0
 10
-1.0
 20
0.0
 30
0.0
 11
1.0
 21
0.0
 31
0.0
  0
ENDBLK
  5
617C
  8
0
  0
BLOCK
  8
0
  2
GENDOT
 70
     0
 10
0.0
 20
0.0
 30
0.0
  3
GENDOT
  1

  0
POLYLINE
  5
9ECF
  8
0
  6
BYBLOCK
 62
     0
 66
     1
 10
0.0
 20
0.0
 30
0.0
 70
     1
 40
0.5
 41
0.5
  0
VERTEX
  5
A101
  8
0
  6
BYBLOCK
 62
     0
 10
-0.0625
 20
0.0
 30
0.0
 42
1.0
  0
VERTEX
  5
A102
  8
0
  6
BYBLOCK
 62
     0
 10
0.0625
 20
0.0
 30
0.0
 42
1.0
  0
SEQEND
  5
A103
  8
0
  6
BYBLOCK
 62
     0
  0
ENDBLK
  5
5D25
  8
0
  0
BLOCK
  8
0
  2
SB-16U-70
 70
     0
 10
0.0
 20
0.0
 30
0.0
  3
SB-16U-70
  1

  0
LINE
  5
61AD
  8
1
 10
3.0
 20
-18.0
 30
0.0
 11
3.0
 21
-71.348927535074381
 31
0.0
  0
LINE
  5
61AE
  8
1
 10
83.294094993036651
 20
0.0
 30
0.0
 11
83.294094993036651
 21
-77.294094993037106
 31
0.0
  0
LINE
  5
61AF
  8
1
 10
88.93225071775214
 20
0.0
 30
0.0
 11
88.93225071775214
 21
-76.932250717752595
 31
0.0
  0
LINE
  5
61B0
  8
CENTER
 10
30.0
 20
-12.0
 30
0.0
 11
30.0
 21
-48.000000000000462
 31
0.0
  0
LINE
  5
61B1
  8
1
 10
60.0
 20
-55.0
 30
0.0
 11
60.0
 21
-3.0
 31
0.0
  0
CIRCLE
  5
61B2
  8
1
 10
30.0
 20
-30.0
 30
0.0
 40
20.0
  0
ARC
  5
61B3
  8
1
 10
77.294094993036651
 20
-77.294094993037106
 30
0.0
 40
6.0
 50
270.0
 51
0.0
  0
ARC
  5
61B4
  8
1
 10
76.93225071775214
 20
-76.932250717752595
 30
0.0
 40
12.0
 50
270.0
 51
0.0
  0
LINE
  5
61B5
  8
1
 10
3.0
 20
-60.0
 30
0.0
 11
55.0
 21
-60.0
 31
0.0
  0
LINE
  5
61B6
  8
1
 10
0.0
 20
-83.294094993037106
 30
0.0
 11
77.294094993036651
 21
-83.294094993037106
 31
0.0
  0
LINE
  5
61B7
  8
1
 10
0.0
 20
-88.932250717752595
 30
0.0
 11
76.93225071775214
 21
-88.932250717752595
 31
0.0
  0
LINE
  5
61B8
  8
1
 10
0.0
 20
-72.374987965050877
 30
0.0
 11
3.0
 21
-71.348927535074381
 31
0.0
  0
LINE
  5
61B9
  8
1
 10
0.0
 20
-72.374987965050877
 30
0.0
 11
0.0
 21
-88.932250717752595
 31
0.0
  0
POLYLINE
  5
61BA
  8
1
 66
     1
 10
0.0
 20
0.0
 30
0.0
 70
     2
  0
VERTEX
  5
61BB
  8
1
 10
61.819851171331273
 20
-61.819851171331273
 30
0.0
 42
0.0866304091147294
  0
VERTEX
  5
61BC
  8
1
 10
62.186112881016918
 20
-59.72178316988856
 30
0.0
 42
0.0866304091147341
 70
     1
  0
VERTEX
  5
61BD
  8
1
 10
61.819851171331273
 20
-57.623715168445869
 30
0.0
 42
0.0652850074443288
  0
VERTEX
  5
61BE
  8
1
 10
61.081948032378023
 20
-56.192540039807227
 30
0.0
 42
0.0652850074443242
 70
     1
  0
VERTEX
  5
61BF
  8
1
 10
60.0
 20
-55.0
 30
0.0
  0
SEQEND
  5
61C0
  8
1
  0
POLYLINE
  5
61C1
  8
1
 66
     1
 10
0.0
 20
0.0
 30
0.0
 70
     2
  0
VERTEX
  5
61C2
  8
1
 10
61.819851171331273
 20
-61.819851171331273
 30
0.0
 42
-0.0866304091147294
  0
VERTEX
  5
61C3
  8
1
 10
59.72178316988856
 20
-62.186112881016918
 30
0.0
 42
-0.0866304091147341
 70
     1
  0
VERTEX
  5
61C4
  8
1
 10
57.623715168445869
 20
-61.819851171331273
 30
0.0
 42
-0.0652850074443288
  0
VERTEX
  5
61C5
  8
1
 10
56.192540039807227
 20
-61.081948032378023
 30
0.0
 42
-0.0652850074443242
 70
     1
  0
VERTEX
  5
61C6
  8
1
 10
55.0
 20
-60.0
 30
0.0
  0
SEQEND
  5
61C7
  8
1
  0
ARC
  5
61C8
  8
1
 10
60.0
 20
-60.0
 30
0.0
 40
5.0
 50
90.0
 51
180.0
  0
LINE
  5
61C9
  8
1
 10
81.536735680156184
 20
-81.536735680156184
 30
0.0
 11
61.819851171331273
 21
-61.819851171331273
 31
0.0
  0
LINE
  5
61CA
  8
1
 10
72.374987965050877
 20
0.0
 30
0.0
 11
88.93225071775214
 21
0.0
 31
0.0
  0
POLYLINE
  5
61CB
  8
1
 66
     1
 10
0.0
 20
0.0
 30
0.0
 70
     1
  0
VERTEX
  5
61CC
  8
1
 10
43.856406460551618
 20
-30.000000000000909
 30
0.0
  0
VERTEX
  5
61CD
  8
1
 10
36.928203230275358
 20
-42.000000000000902
 30
0.0
  0
VERTEX
  5
61CE
  8
1
 10
23.071796769724639
 20
-42.000000000000902
 30
0.0
  0
VERTEX
  5
61CF
  8
1
 10
16.143593539449281
 20
-30.000000000000458
 30
0.0
  0
VERTEX
  5
61D0
  8
1
 10
23.071796769724639
 20
-18.000000000000451
 30
0.0
  0
VERTEX
  5
61D1
  8
1
 10
36.928203230275358
 20
-18.000000000000451
 30
0.0
  0
SEQEND
  5
61D2
  8
1
  0
CIRCLE
  5
61D3
  8
1
 10
30.0
 20
-30.000000000000458
 30
0.0
 40
12.000000000000499
  0
LINE
  5
61D4
  8
CENTER
 10
12.0
 20
-30.0
 30
0.0
 11
48.0
 21
-30.000000000000458
 31
0.0
  0
LINE
  5
61D5
  8
1
 10
18.0
 20
-3.0
 30
0.0
 11
71.348927535073926
 21
-3.0
 31
0.0
  0
CIRCLE
  5
61D6
  8
1
 10
30.0
 20
-30.0
 30
0.0
 40
8.0
  0
ARC
  5
61D7
  8
1
 10
18.0
 20
-18.0
 30
0.0
 40
15.0
 50
90.0
 51
180.0
  0
LINE
  5
61D8
  8
1
 10
72.374987965050877
 20
0.0
 30
0.0
 11
71.348927535073926
 21
-3.0
 31
0.0
  0
ENDBLK
  5
61D9
  8
0
  0
BLOCK
  8
0
  2
NUT_M163
 70
     0
 10
0.0
 20
0.0
 30
0.0
  3
NUT_M163
  1

  0
LINE
  5
6C78
  8
0
 10
-12.000011282681101
 20
6.928241572536308
 30
0.0
 11
-12.000011282681101
 21
-6.9281704274637264
 31
0.0
  0
LINE
  5
6C79
  8
0
 10
11.99996871731889
 20
6.928241572536308
 30
0.0
 11
11.99996871731889
 21
-6.9281704274637264
 31
0.0
  0
CIRCLE
  5
6C7A
  8
0
 10
-0.0000212826810753
 20
0.0000415725363041
 30
0.0
 40
11.499999000000001
  0
CIRCLE
  5
6C7B
  8
0
 10
-0.0000212826810753
 20
0.0000415725363041
 30
0.0
 40
6.9999997999999994
  0
CIRCLE
  5
6C7C
  8
1
 10
-0.0000212826810753
 20
0.0000415725363041
 30
0.0
 40
8.0
  0
LINE
  5
6C7D
  8
0
 10
-0.0000212826810753
 20
-13.856361427463691
 30
0.0
 11
11.99996871731889
 21
-6.9281704274637264
 31
0.0
  0
LINE
  5
6C7E
  8
0
 10
-0.0000212826810753
 20
-13.856361427463691
 30
0.0
 11
-12.000011282681101
 21
-6.9281704274637264
 31
0.0
  0
LINE
  5
6C7F
  8
0
 10
-0.0000212826810753
 20
13.85643157253628
 30
0.0
 11
11.99996871731889
 21
6.9282315725362764
 31
0.0
  0
LINE
  5
6C80
  8
0
 10
-12.000011282681101
 20
6.928241572536308
 30
0.0
 11
-0.0000212826810753
 21
13.85643157253628
 31
0.0
  0
ENDBLK
  5
6C81
  8
0
  0
BLOCK
  8
0
  2
_ACMFILLEDHALF
 70
     0
 10
0.0
 20
0.0
 30
0.0
  3
_ACMFILLEDHALF
  1

  0
TRACE
  5
6CF4
  8
0
 62
     0
 10
-0.8
 20
0.0
 30
0.0
 11
-1.0
 21
0.166666666
 31
0.0
 12
0.0
 22
0.0
 32
0.0
 13
0.0
 23
0.0
 33
0.0
  0
LINE
  5
6CF5
  8
0
 62
     0
 10
-1.0
 20
0.0
 30
0.0
 11
-0.8
 21
0.0
 31
0.0
  0
ENDBLK
  5
6CF6
  8
0
  0
BLOCK
  8
0
  2
*D30
 70
     1
 10
0.0
 20
0.0
 30
0.0
  3
*D30
  1

  0
LINE
  5
9D28
  8
AM_5_SCALE
  6
BYBLOCK
 10
2163.42292348402
 20
3458.1778740979062
 30
0.0
 11
2163.42292348402
 21
3760.1778740979048
 31
0.0
  0
LINE
  5
9D29
  8
AM_5_SCALE
  6
BYBLOCK
 10
2142.42292348402
 20
3458.1778740979039
 30
0.0
 11
2142.42292348402
 21
3760.1778740979048
 31
0.0
  0
LINE
  5
9D2A
  8
AM_5_SCALE
  6
BYBLOCK
 10
2193.4229234840209
 20
3733.1778740979048
 30
0.0
 11
2223.4229234840209
 21
3733.1778740979048
 31
0.0
  0
LINE
  5
9D2B
  8
AM_5_SCALE
  6
BYBLOCK
 10
2112.42292348402
 20
3733.1778740979048
 30
0.0
 11
2082.42292348402
 21
3733.1778740979048
 31
0.0
  0
INSERT
  5
9D2C
  8
0
  2
*U63
 10
0.0
 20
0.0
 30
0.0
  0
LINE
  5
9D2D
  8
AM_5_SCALE
  6
BYBLOCK
 10
2163.42292348402
 20
3733.1778740979048
 30
0.0
 11
2142.42292348402
 21
3733.1778740979048
 31
0.0
  0
INSERT
  5
9D2E
  8
AM_5_SCALE
  2
_OPEN30
 10
2163.42292348402
 20
3733.1778740979048
 30
0.0
 41
30.0
 42
30.0
 43
30.0
 50
180.0
  0
INSERT
  5
9D2F
  8
AM_5_SCALE
  2
_OPEN30
 10
2142.42292348402
 20
3733.1778740979048
 30
0.0
 41
30.0
 42
30.0
 43
30.0
  0
POINT
  5
9D30
  8
DEFPOINTS
 62
     0
 10
2163.42292348402
 20
3443.1778740979048
 30
0.0
  0
POINT
  5
9D31
  8
DEFPOINTS
 62
     0
 10
2142.42292348402
 20
3443.1778740979039
 30
0.0
  0
POINT
  5
9D32
  8
DEFPOINTS
 62
     0
 10
2142.42292348402
 20
3733.1778740979048
 30
0.0
  0
ENDBLK
  5
71E0
  8
0
  0
BLOCK
  8
0
  2
*D31
 70
     1
 10
0.0
 20
0.0
 30
0.0
  3
*D31
  1

  0
LINE
  5
9D33
  8
AM_5_SCALE
  6
BYBLOCK
 10
2217.42292348402
 20
3383.1778740979048
 30
0.0
 11
2510.266141823668
 21
3383.1778740979048
 31
0.0
  0
LINE
  5
9D34
  8
AM_5_SCALE
  6
BYBLOCK
 10
2217.42292348402
 20
2822.1778740979039
 30
0.0
 11
2510.2661418236671
 21
2822.1778740979039
 31
0.0
  0
LINE
  5
9D35
  8
AM_5_SCALE
  6
BYBLOCK
 10
2483.266141823668
 20
3353.1778740979048
 30
0.0
 11
2483.2661418236671
 21
2852.1778740979039
 31
0.0
  0
INSERT
  5
9D36
  8
AM_5_SCALE
  2
_OPEN30
 10
2483.266141823668
 20
3383.1778740979048
 30
0.0
 41
30.0
 42
30.0
 43
30.0
 50
90.0
  0
INSERT
  5
9D37
  8
AM_5_SCALE
  2
_OPEN30
 10
2483.2661418236671
 20
2822.1778740979039
 30
0.0
 41
30.0
 42
30.0
 43
30.0
 50
270.0
  0
INSERT
  5
9D38
  8
0
  2
*U64
 10
0.0
 20
0.0
 30
0.0
  0
POINT
  5
9D39
  8
DEFPOINTS
 62
     0
 10
2202.42292348402
 20
3383.1778740979048
 30
0.0
  0
POINT
  5
9D3A
  8
DEFPOINTS
 62
     0
 10
2202.42292348402
 20
2822.1778740979039
 30
0.0
  0
POINT
  5
9D3B
  8
DEFPOINTS
 62
     0
 10
2483.2661418236671
 20
2822.1778740979039
 30
0.0
  0
ENDBLK
  5
72B9
  8
0
  0
BLOCK
  8
0
  2
*D32
 70
     1
 10
0.0
 20
0.0
 30
0.0
  3
*D32
  1

  0
LINE
  5
9D3C
  8
AM_5_SCALE
  6
BYBLOCK
 10
1120.8045520454921
 20
2286.9294505970611
 30
0.0
 11
590.61573650027879
 21
2286.929450597062
 31
0.0
  0
LINE
  5
9D3D
  8
AM_5_SCALE
  6
BYBLOCK
 10
1072.596940725713
 20
2256.9294505970611
 30
0.0
 11
590.61573650027879
 21
2256.9294505970611
 31
0.0
  0
LINE
  5
9D3E
  8
AM_5_SCALE
  6
BYBLOCK
 10
617.61573650027879
 20
2316.9294505970611
 30
0.0
 11
617.61573650027879
 21
2346.929450597062
 31
0.0
  0
LINE
  5
9D3F
  8
AM_5_SCALE
  6
BYBLOCK
 10
617.61573650027867
 20
2226.929450597062
 30
0.0
 11
617.61573650027867
 21
2084.4294505970611
 31
0.0
  0
LINE
  5
9D40
  8
AM_5_SCALE
  6
BYBLOCK
 10
617.61573650027867
 20
2286.929450597062
 30
0.0
 11
617.61573650027867
 21
2256.9294505970611
 31
0.0
  0
INSERT
  5
9D41
  8
AM_5_SCALE
  2
_OPEN30
 10
617.61573650027867
 20
2286.929450597062
 30
0.0
 41
30.0
 42
30.0
 43
30.0
 50
270.0
  0
INSERT
  5
9D42
  8
AM_5_SCALE
  2
_OPEN30
 10
617.61573650027867
 20
2256.9294505970611
 30
0.0
 41
30.0
 42
30.0
 43
30.0
 50
90.0
  0
INSERT
  5
9D43
  8
0
  2
*U65
 10
0.0
 20
0.0
 30
0.0
  0
POINT
  5
9D44
  8
DEFPOINTS
 62
     0
 10
1135.8045520454921
 20
2286.9294505970611
 30
0.0
  0
POINT
  5
9D45
  8
DEFPOINTS
 62
     0
 10
1087.596940725713
 20
2256.9294505970611
 30
0.0
  0
POINT
  5
9D46
  8
DEFPOINTS
 62
     0
 10
617.61573650027867
 20
2256.9294505970611
 30
0.0
  0
ENDBLK
  5
73F6
  8
0
  0
BLOCK
  8
0
  2
*D33
 70
     1
 10
0.0
 20
0.0
 30
0.0
  3
*D33
  1

  0
LINE
  5
9D5B
  8
AM_5_SCALE
  6
BYBLOCK
 10
2179.9229234840209
 20
3463.1778740979048
 30
0.0
 11
2510.266141823668
 21
3463.1778740979048
 31
0.0
  0
LINE
  5
9D5C
  8
AM_5_SCALE
  6
BYBLOCK
 10
2190.9027419594122
 20
3383.1778740979048
 30
0.0
 11
2510.266141823668
 21
3383.1778740979048
 31
0.0
  0
LINE
  5
9D5D
  8
AM_5_SCALE
  6
BYBLOCK
 10
2483.266141823668
 20
3493.1778740979062
 30
0.0
 11
2483.266141823668
 21
3523.1778740979062
 31
0.0
  0
LINE
  5
9D5E
  8
AM_5_SCALE
  6
BYBLOCK
 10
2483.266141823668
 20
3353.1778740979048
 30
0.0
 11
2483.266141823668
 21
3323.1778740979039
 31
0.0
  0
INSERT
  5
9D5F
  8
0
  2
*U66
 10
0.0
 20
0.0
 30
0.0
  0
LINE
  5
9D60
  8
AM_5_SCALE
  6
BYBLOCK
 10
2483.266141823668
 20
3463.1778740979048
 30
0.0
 11
2483.266141823668
 21
3383.1778740979048
 31
0.0
  0
INSERT
  5
9D61
  8
AM_5_SCALE
  2
_OPEN30
 10
2483.266141823668
 20
3463.1778740979048
 30
0.0
 41
30.0
 42
30.0
 43
30.0
 50
270.0
  0
INSERT
  5
9D62
  8
AM_5_SCALE
  2
_OPEN30
 10
2483.266141823668
 20
3383.1778740979048
 30
0.0
 41
30.0
 42
30.0
 43
30.0
 50
90.0
  0
POINT
  5
9D63
  8
DEFPOINTS
 62
     0
 10
2164.9229234840209
 20
3463.1778740979048
 30
0.0
  0
POINT
  5
9D64
  8
DEFPOINTS
 62
     0
 10
2175.9027419594122
 20
3383.1778740979048
 30
0.0
  0
POINT
  5
9D65
  8
DEFPOINTS
 62
     0
 10
2483.266141823668
 20
3383.1778740979048
 30
0.0
  0
ENDBLK
  5
76E1
  8
0
  0
BLOCK
  8
0
  2
*D34
 70
     1
 10
0.0
 20
0.0
 30
0.0
  3
*D34
  1

  0
LINE
  5
9D14
  8
AM_5_SCALE
  6
BYBLOCK
 10
2178.4229234840209
 20
2742.1778740979048
 30
0.0
 11
2510.2661418236671
 21
2742.1778740979048
 31
0.0
  0
LINE
  5
9D15
  8
AM_5_SCALE
  6
BYBLOCK
 10
2227.2966771847568
 20
2822.1778740979048
 30
0.0
 11
2510.2661418236671
 21
2822.1778740979048
 31
0.0
  0
LINE
  5
9D16
  8
AM_5_SCALE
  6
BYBLOCK
 10
2483.2661418236671
 20
2712.1778740979039
 30
0.0
 11
2483.2661418236671
 21
2682.1778740979039
 31
0.0
  0
LINE
  5
9D17
  8
AM_5_SCALE
  6
BYBLOCK
 10
2483.2661418236671
 20
2852.1778740979039
 30
0.0
 11
2483.2661418236671
 21
2882.1778740979048
 31
0.0
  0
INSERT
  5
9D18
  8
0
  2
*U61
 10
0.0
 20
0.0
 30
0.0
  0
LINE
  5
9D19
  8
AM_5_SCALE
  6
BYBLOCK
 10
2483.2661418236671
 20
2742.1778740979048
 30
0.0
 11
2483.2661418236671
 21
2822.1778740979048
 31
0.0
  0
INSERT
  5
9D1A
  8
AM_5_SCALE
  2
_OPEN30
 10
2483.2661418236671
 20
2742.1778740979048
 30
0.0
 41
30.0
 42
30.0
 43
30.0
 50
90.0
  0
INSERT
  5
9D1B
  8
AM_5_SCALE
  2
_OPEN30
 10
2483.2661418236671
 20
2822.1778740979048
 30
0.0
 41
30.0
 42
30.0
 43
30.0
 50
270.0
  0
POINT
  5
9D1C
  8
DEFPOINTS
 62
     0
 10
2163.42292348402
 20
2742.1778740979048
 30
0.0
  0
POINT
  5
9D1D
  8
DEFPOINTS
 62
     0
 10
2212.2966771847568
 20
2822.1778740979048
 30
0.0
  0
POINT
  5
9D1E
  8
DEFPOINTS
 62
     0
 10
2483.2661418236671
 20
2822.1778740979048
 30
0.0
  0
ENDBLK
  5
7741
  8
0
  0
BLOCK
  8
0
  2
*D35
 70
     1
 10
0.0
 20
0.0
 30
0.0
  3
*D35
  1

  0
LINE
  5
9D1F
  8
AM_5_SCALE
 10
1061.42292348402
 20
3384.6778740979048
 30
0.0
 11
1061.42292348402
 21
3870.177874097903
 31
0.0
  0
LINE
  5
9D20
  8
AM_5_SCALE
 10
2163.42292348402
 20
3384.6778740979048
 30
0.0
 11
2163.42292348402
 21
3870.177874097903
 31
0.0
  0
LINE
  5
9D21
  8
AM_5_SCALE
 10
1091.42292348402
 20
3843.177874097903
 30
0.0
 11
2133.4229234840209
 21
3843.177874097903
 31
0.0
  0
INSERT
  5
9D22
  8
AM_5_SCALE
  2
_OPEN30
 10
1061.42292348402
 20
3843.177874097903
 30
0.0
 41
30.0
 42
30.0
 43
30.0
 50
180.0
  0
INSERT
  5
9D23
  8
AM_5_SCALE
  2
_OPEN30
 10
2163.42292348402
 20
3843.177874097903
 30
0.0
 41
30.0
 42
30.0
 43
30.0
  0
INSERT
  5
9D24
  8
0
  2
*U62
 10
0.0
 20
0.0
 30
0.0
  0
POINT
  5
9D25
  8
DEFPOINTS
 62
     0
 10
1061.42292348402
 20
3383.1778740979048
 30
0.0
  0
POINT
  5
9D26
  8
DEFPOINTS
 62
     0
 10
2163.42292348402
 20
3383.1778740979048
 30
0.0
  0
POINT
  5
9D27
  8
DEFPOINTS
 62
     0
 10
2163.42292348402
 20
3843.177874097903
 30
0.0
  0
ENDBLK
  5
7952
  8
0
  0
BLOCK
  8
0
  2
*D36
 70
     1
 10
0.0
 20
0.0
 30
0.0
  3
*D36
  1

  0
LINE
  5
9BC4
  8
AM_5_SCALE
  6
BYBLOCK
 10
1061.42292348402
 20
3458.1778740979062
 30
0.0
 11
1061.42292348402
 21
3760.1778740979048
 31
0.0
  0
LINE
  5
9BC5
  8
AM_5_SCALE
  6
BYBLOCK
 10
1082.42292348402
 20
3458.1778740979039
 30
0.0
 11
1082.42292348402
 21
3760.1778740979048
 31
0.0
  0
LINE
  5
9BC6
  8
AM_5_SCALE
  6
BYBLOCK
 10
1031.42292348402
 20
3733.1778740979048
 30
0.0
 11
1001.42292348402
 21
3733.1778740979048
 31
0.0
  0
LINE
  5
9BC7
  8
AM_5_SCALE
  6
BYBLOCK
 10
1112.42292348402
 20
3733.1778740979048
 30
0.0
 11
1142.42292348402
 21
3733.1778740979048
 31
0.0
  0
INSERT
  5
9BC8
  8
0
  2
*U54
 10
0.0
 20
0.0
 30
0.0
  0
LINE
  5
9BC9
  8
AM_5_SCALE
  6
BYBLOCK
 10
1061.42292348402
 20
3733.1778740979048
 30
0.0
 11
1082.42292348402
 21
3733.1778740979048
 31
0.0
  0
INSERT
  5
9BCA
  8
AM_5_SCALE
  2
_OPEN30
 10
1061.42292348402
 20
3733.1778740979048
 30
0.0
 41
30.0
 42
30.0
 43
30.0
  0
INSERT
  5
9BCB
  8
AM_5_SCALE
  2
_OPEN30
 10
1082.42292348402
 20
3733.1778740979048
 30
0.0
 41
30.0
 42
30.0
 43
30.0
 50
180.0
  0
POINT
  5
9BCC
  8
DEFPOINTS
 62
     0
 10
1061.42292348402
 20
3443.1778740979048
 30
0.0
  0
POINT
  5
9BCD
  8
DEFPOINTS
 62
     0
 10
1082.42292348402
 20
3443.1778740979039
 30
0.0
  0
POINT
  5
9BCE
  8
DEFPOINTS
 62
     0
 10
1082.42292348402
 20
3733.1778740979048
 30
0.0
  0
ENDBLK
  5
85E1
  8
0
  0
BLOCK
  8
0
  2
A4-FORMAT
 70
     0
 10
0.0
 20
0.0
 30
0.0
  3
A4-FORMAT
  1

  0
LINE
  5
866D
  8
AM_BOR_GAWA
 62
     2
 10
14.99999973891854
 20
290.09999981953939
 30
0.0
 11
198.9999997389186
 21
290.09999981953939
 31
0.0
  0
LINE
  5
866E
  8
AM_BOR_GAWA
 62
     2
 10
14.99999973891854
 20
290.09999981953939
 30
0.0
 11
14.99999973891854
 21
8.0999998195393967
 31
0.0
  0
LINE
  5
866F
  8
AM_BOR_GAWA
 62
     2
 10
198.9999997389186
 20
290.09999981953939
 30
0.0
 11
198.99999973891849
 21
8.0999998195393523
 31
0.0
  0
LINE
  5
8670
  8
AM_BOR_GAWA
 62
     2
 10
14.99999973891854
 20
8.0999998195393967
 30
0.0
 11
198.99999973891849
 21
8.0999998195393523
 31
0.0
  0
POLYLINE
  5
8675
  8
DEFPOINTS
 66
     1
 10
0.0
 20
0.0
 30
0.0
 70
     1
  0
VERTEX
  5
A09B
  8
DEFPOINTS
 10
0.0
 20
0.0
 30
0.0
  0
VERTEX
  5
A09C
  8
DEFPOINTS
 10
210.0
 20
0.0
 30
0.0
  0
VERTEX
  5
A09D
  8
DEFPOINTS
 10
210.0
 20
297.0
 30
0.0
  0
VERTEX
  5
A09E
  8
DEFPOINTS
 10
0.0
 20
297.0
 30
0.0
  0
SEQEND
  5
A09F
  8
DEFPOINTS
  0
ENDBLK
  5
8678
  8
0
  0
BLOCK
  8
0
  2
A4-TITLE-BD
 70
     2
 10
0.0
 20
0.0
 30
0.0
  3
A4-TITLE-BD
  1

  0
LINE
  5
867F
  8
AM_BOR_GAWA
 62
     9
 10
-184.00000016526539
 20
272.99999983473452
 30
0.0
 11
-0.000000165265476
 21
272.99999983473452
 31
0.0
  0
TEXT
  5
8680
  8
AM_BOR_GAWA
 62
     9
 10
-176.4340063655093
 20
273.73216062408022
 30
0.0
 40
2.5
  1
SPECIFICATIONS
  7
CMP-SET
  0
TEXT
  5
8681
  8
AM_BOR_GAWA
 62
     9
 10
-179.2263392287004
 20
277.06349419675502
 30
0.0
 40
3.5
  1
納　入　仕　様　書
  7
CMP-SET
  0
LINE
  5
8682
  8
AM_BOR_GAWA
 62
     9
 10
-139.00000016526539
 20
281.99999983473452
 30
0.0
 11
-139.00000016526539
 21
272.99999983473452
 31
0.0
  0
TEXT
  5
8683
  8
AM_BOR_GAWA
 62
     9
 10
-19.495900165265539
 20
270.70289983473452
 30
0.0
 40
1.766999999999995
  1
日 付
 72
     4
 11
-16.60980016526554
 21
271.58639983473449
 31
0.0
  0
LINE
  5
8684
  8
AM_BOR_GAWA
 62
     9
 10
-0.000000165265476
 20
267.34559983473463
 30
0.0
 11
-69.000000165265604
 21
267.34559983473463
 31
0.0
  0
LINE
  5
8685
  8
AM_BOR_GAWA
 62
     9
 10
-0.000000165265476
 20
270.17279983473452
 30
0.0
 11
-69.000000165265604
 21
270.17279983473452
 31
0.0
  0
TEXT
  5
8686
  8
AM_BOR_GAWA
 62
     9
 10
-55.834600165265542
 20
270.70289983473452
 30
0.0
 40
1.766999999999995
  1
来　歴　・　変　更　事　項
 72
     4
 11
-42.287600165265538
 21
271.58639983473449
 31
0.0
  0
TEXT
  5
8687
  8
AM_BOR_GAWA
 62
     9
 10
-73.64347282239828
 20
275.78602954780911
 30
0.0
 40
3.5
  1
殿
  7
CMP-SET
  0
TEXT
  5
8688
  8
AM_BOR_GAWA
 62
     9
 10
-67.772423227183992
 20
277.45507607757793
 30
0.0
 40
3.0
  1
図 番
  7
CMP-SET
  0
TEXT
  5
8689
  8
AM_BOR_GAWA
 62
     9
 10
-67.715137266963794
 20
273.83301040068528
 30
0.0
 40
2.0
  1
DWG.NO.
  7
CMP-SET
  0
LINE
  5
868A
  8
AM_BOR_GAWA
 62
     9
 10
-69.000000165265419
 20
281.99999983473452
 30
0.0
 11
-69.000000165265419
 21
272.99999983473452
 31
0.0
  0
TEXT
  5
868B
  8
AM_BOR_GAWA
 62
     9
 10
-68.423800165265604
 20
270.70289983473452
 30
0.0
 40
1.766999999999995
  1
符号
 72
     4
 11
-66.539000165265605
 21
271.58639983473449
 31
0.0
  0
LINE
  5
868C
  8
AM_BOR_GAWA
 62
     9
 10
-69.000000165265604
 20
267.34559983473463
 30
0.0
 11
-69.000000165265604
 21
272.99999983473452
 31
0.0
  0
LINE
  5
868D
  8
AM_BOR_GAWA
 62
     9
 10
-64.078000165265593
 20
267.34559983473463
 30
0.0
 11
-64.078000165265593
 21
272.99999983473452
 31
0.0
  0
LINE
  5
868E
  8
AM_BOR_GAWA
 62
     9
 10
-20.4972001652655
 20
267.34559983473463
 30
0.0
 11
-20.4972001652655
 21
272.99999983473452
 31
0.0
  0
TEXT
  5
868F
  8
AM_BOR_GAWA
 62
     9
 10
-5.9489001652655018
 20
270.70289983473452
 30
0.0
 40
1.766999999999995
  1
訂 正
 72
     4
 11
-3.1806001652655018
 21
271.58639983473449
 31
0.0
  0
TEXT
  5
8690
  8
AM_BOR_GAWA
 62
     9
 10
-12.310100165265551
 20
270.70289983473452
 30
0.0
 40
1.766999999999995
  1
承 認
 72
     4
 11
-9.5418001652655562
 21
271.58639983473449
 31
0.0
  0
LINE
  5
8691
  8
AM_BOR_GAWA
 62
     9
 10
-12.722400165265579
 20
267.34559983473463
 30
0.0
 11
-12.722400165265579
 21
272.99999983473452
 31
0.0
  0
LINE
  5
8692
  8
AM_BOR_GAWA
 62
     9
 10
-4.3000942804843874
 20
278.84689493886208
 30
0.0
 11
-1.256150955392314
 21
273.5746304444425
 31
0.0
  0
LINE
  5
8693
  8
AM_BOR_GAWA
 62
     9
 10
-7.3440376055764602
 20
273.5746304444425
 30
0.0
 11
-4.3000942804843874
 21
278.84689493886208
 31
0.0
  0
LINE
  5
8694
  8
AM_BOR_GAWA
 62
     9
 10
-9.0000001652654191
 20
281.99999983473452
 30
0.0
 11
-9.0000001652654191
 21
272.99999983473452
 31
0.0
  0
LINE
  5
8695
  8
AM_BOR_GAWA
 62
     9
 10
-7.3440376055764878
 20
273.5746304444425
 30
0.0
 11
-1.256150955392342
 21
273.5746304444425
 31
0.0
  0
LINE
  5
8696
  8
AM_BOR_GAWA
 62
     9
 10
-6.3612001652655286
 20
267.34559983473463
 30
0.0
 11
-6.3612001652655286
 21
272.99999983473452
 31
0.0
  0
TEXT
  5
8697
  8
AM_BOR_GAWA
 62
     9
 10
-7.5257655652834776
 20
279.20845580192292
 30
0.0
 40
2.0
  1
REV.
  7
CMP-SET
  0
LINE
  5
8698
  8
AM_BOR_GAWA
 62
     9
 10
-189.50000016526539
 20
43.999999834734517
 30
0.0
 11
-189.50000016526539
 21
8.9999998347345151
 31
0.0
  0
LINE
  5
8699
  8
AM_BOR_GAWA
 62
     9
 10
-186.0000001652655
 20
8.9999998347345151
 30
0.0
 11
-186.0000001652655
 21
43.999999834734517
 31
0.0
  0
LINE
  5
869A
  8
AM_BOR_GAWA
 62
     9
 10
-186.0000001652655
 20
6.999999834734516
 30
0.0
 11
-186.0000001652655
 21
-0.0000001652654831
 31
0.0
  0
LINE
  5
869B
  8
AM_BOR_GAWA
 62
     9
 10
-189.50000016526539
 20
-0.0000001652654831
 30
0.0
 11
-189.50000016526539
 21
6.999999834734516
 31
0.0
  0
LINE
  5
869C
  8
AM_BOR_GAWA
 62
     9
 10
-186.0000001652655
 20
-0.0000001652654831
 30
0.0
 11
-189.50000016526539
 21
-0.0000001652654831
 31
0.0
  0
LINE
  5
869D
  8
AM_BOR_GAWA
 62
     9
 10
-189.50000016526539
 20
6.999999834734516
 30
0.0
 11
-186.0000001652655
 21
6.999999834734516
 31
0.0
  0
LINE
  5
869E
  8
AM_BOR_GAWA
 62
     9
 10
-189.50000016526539
 20
8.9999998347345151
 30
0.0
 11
-186.0000001652655
 21
8.9999998347345151
 31
0.0
  0
LINE
  5
869F
  8
AM_BOR_GAWA
 62
     9
 10
-186.0000001652655
 20
43.999999834734517
 30
0.0
 11
-189.50000016526539
 21
43.999999834734517
 31
0.0
  0
TEXT
  5
86A0
  8
AM_BOR_GAWA
 62
     9
 10
-170.83226537593231
 20
5.999999834734516
 30
0.0
 40
2.1999999999999988
  1
検図
  7
CMP-SET
  0
TEXT
  5
86A1
  8
AM_BOR_GAWA
 62
     9
 10
-178.9633680745973
 20
6.3733438347345173
 30
0.0
 40
1.1000000000000001
  1
・APPRD
  7
SMP-SET
  0
TEXT
  5
86A2
  8
AM_BOR_GAWA
 62
     9
 10
-183.72344524095931
 20
5.999999834734516
 30
0.0
 40
2.1999999999999988
  1
承認
  7
CMP-SET
  0
LINE
  5
86A3
  8
AM_BOR_GAWA
 62
     9
 10
-172.0000001652655
 20
8.9999998347345151
 30
0.0
 11
-172.0000001652655
 21
-0.0000001652654849
 31
0.0
  0
SOLID
  5
86A4
  8
AM_BOR_GAWA
 62
     9
 10
-171.69197582240329
 20
15.60697140475172
 30
0.0
 11
-168.3919818224033
 21
15.60697140475172
 31
0.0
 12
-171.0919758224033
 22
15.356974404751719
 32
0.0
 13
-168.99198182240329
 23
15.356974404751719
 33
0.0
  0
SOLID
  5
86A5
  8
AM_BOR_GAWA
 62
     9
 10
-170.04197582240329
 20
16.80697140475171
 30
0.0
 11
-167.88197582240329
 21
16.21664940475172
 31
0.0
 12
-170.04197582240329
 22
16.443060604751722
 32
0.0
 13
-167.88197582240329
 23
15.852738604751719
 33
0.0
  0
SOLID
  5
86A6
  8
AM_BOR_GAWA
 62
     9
 10
-170.6021178224033
 20
13.50697200475172
 30
0.0
 11
-168.8021118224033
 21
13.50697200475172
 31
0.0
 12
-171.2021178224033
 22
13.206974404751721
 32
0.0
 13
-168.20212382240331
 23
13.206974404751721
 33
0.0
  0
SOLID
  5
86A7
  8
AM_BOR_GAWA
 62
     9
 10
-171.2021178224033
 20
14.16697560475172
 30
0.0
 11
-168.44212382240329
 21
14.16697560475172
 31
0.0
 12
-170.6021178224033
 22
13.866974404751719
 32
0.0
 13
-168.8021118224033
 23
13.866974404751719
 33
0.0
  0
SOLID
  5
86A8
  8
AM_BOR_GAWA
 62
     9
 10
-171.0919758224033
 20
14.71697200475173
 30
0.0
 11
-168.99198182240329
 21
14.71697200475173
 31
0.0
 12
-171.69197582240329
 22
14.49197500475173
 32
0.0
 13
-168.3919818224033
 23
14.49197500475173
 33
0.0
  0
SOLID
  5
86A9
  8
AM_BOR_GAWA
 62
     9
 10
-171.0919758224033
 20
15.15197140475173
 30
0.0
 11
-168.99198182240329
 21
15.15197140475173
 31
0.0
 12
-171.0919758224033
 22
14.921975004751721
 32
0.0
 13
-168.99198182240329
 23
14.921975004751721
 33
0.0
  0
ARC
  5
86AA
  8
AM_BOR_GAWA
 62
     9
 10
-175.37812841179201
 20
8.6862592124965587
 30
0.0
 40
7.0738471405579899
 50
103.9948124715945
 51
109.8781563158185
  0
ARC
  5
86AB
  8
AM_BOR_GAWA
 62
     2
 10
-175.37812841179161
 20
18.428318515137558
 30
0.0
 40
7.043847140559869
 50
246.77579932696429
 51
256.00518752840549
  0
ARC
  5
86AC
  8
AM_BOR_GAWA
 62
     2
 10
-175.37812841179161
 20
18.428318515137558
 30
0.0
 40
7.0738471405598711
 50
246.77579932696429
 51
256.00518752840549
  0
ARC
  5
86AD
  8
AM_BOR_GAWA
 62
     2
 10
-185.02853724668941
 20
23.976593973763691
 30
0.0
 40
13.05134816898768
 50
300.0
 51
306.77579932696392
  0
ARC
  5
86AE
  8
AM_BOR_GAWA
 62
     2
 10
-185.02853724668941
 20
23.976593973763691
 30
0.0
 40
13.11134816898768
 50
300.0
 51
306.77579932696392
  0
ARC
  5
86AF
  8
AM_BOR_GAWA
 62
     9
 10
-181.7071519018433
 20
12.460323434036461
 30
0.0
 40
3.184332901828971
 50
76.005187528405486
 51
94.702646208888211
  0
ARC
  5
86B0
  8
AM_BOR_GAWA
 62
     9
 10
-176.6119233285109
 20
7.973927385201506
 30
0.0
 40
7.0738471405603622
 50
130.7431265331721
 51
136.00518752840341
  0
ARC
  5
86B1
  8
AM_BOR_GAWA
 62
     2
 10
-176.61192332851249
 20
19.1406503424292
 30
0.0
 40
7.0438471405580891
 50
223.99481247159679
 51
233.22420067304051
  0
ARC
  5
86B2
  8
AM_BOR_GAWA
 62
     2
 10
-176.61192332851249
 20
19.1406503424292
 30
0.0
 40
7.0738471405580894
 50
223.99481247159679
 51
233.22420067304051
  0
ARC
  5
86B3
  8
AM_BOR_GAWA
 62
     2
 10
-181.70715190184319
 20
14.65425429359564
 30
0.0
 40
3.1843329018287818
 50
265.29735379110531
 51
283.99481247159451
  0
ARC
  5
86B4
  8
AM_BOR_GAWA
 62
     8
 10
-181.9362271303508
 20
15.24504448904602
 30
0.0
 40
0.3902057009789892
 50
149.9999999999911
 51
205.29735379109499
  0
ARC
  5
86B5
  8
AM_BOR_GAWA
 62
     2
 10
-179.41005034000531
 20
16.43902004928562
 30
0.0
 40
3.1843329018289901
 50
205.2973537911044
 51
223.99481247159389
  0
ARC
  5
86B6
  8
AM_BOR_GAWA
 62
     9
 10
-181.9362271303508
 20
11.8695332385862
 30
0.0
 40
0.3602057009790229
 50
154.7026462088896
 51
209.9999999999969
  0
ARC
  5
86B7
  8
AM_BOR_GAWA
 62
     8
 10
-181.93622713035089
 20
11.869533238586181
 30
0.0
 40
0.3602057009789604
 50
209.9999999999998
 51
265.29735379110861
  0
ARC
  5
86B8
  8
AM_BOR_GAWA
 62
     8
 10
-181.93622713035089
 20
11.869533238586181
 30
0.0
 40
0.3902057009789604
 50
209.9999999999998
 51
265.29735379110861
  0
ARC
  5
86B9
  8
AM_BOR_GAWA
 62
     9
 10
-179.41005034000511
 20
10.67555767834653
 30
0.0
 40
3.18433290182915
 50
136.0051875284058
 51
154.70264620888921
  0
ARC
  5
86BA
  8
AM_BOR_GAWA
 62
     9
 10
-181.9362271303508
 20
11.8695332385862
 30
0.0
 40
0.390205700979023
 50
154.7026462088896
 51
209.9999999999969
  0
ARC
  5
86BB
  8
AM_BOR_GAWA
 62
     9
 10
-181.93622713035069
 20
15.24504448904608
 30
0.0
 40
0.3602057009790108
 50
94.702646208898003
 51
150.0000000000033
  0
ARC
  5
86BC
  8
AM_BOR_GAWA
 62
     8
 10
-181.9362271303508
 20
15.24504448904602
 30
0.0
 40
0.3602057009789892
 50
149.9999999999911
 51
205.29735379109499
  0
ARC
  5
86BD
  8
AM_BOR_GAWA
 62
     9
 10
-181.93622713035069
 20
15.24504448904608
 30
0.0
 40
0.3902057009790108
 50
94.702646208898003
 51
150.0000000000033
  0
ARC
  5
86BE
  8
AM_BOR_GAWA
 62
     2
 10
-191.04412585668891
 20
13.55728886381584
 30
0.0
 40
13.05134816899006
 50
0.0000000000013231
 51
6.775799326964945
  0
ARC
  5
86BF
  8
AM_BOR_GAWA
 62
     2
 10
-191.04412585668891
 20
13.55728886381584
 30
0.0
 40
13.111348168990061
 50
0.0000000000013231
 51
6.775799326964945
  0
ARC
  5
86C0
  8
AM_BOR_GAWA
 62
     9
 10
-171.98960162625241
 20
13.986362437319229
 30
0.0
 40
8.1011710457252288
 50
163.99481247159429
 51
173.22420067303369
  0
ARC
  5
86C1
  8
AM_BOR_GAWA
 62
     9
 10
-185.0285372466895
 20
3.137983753868141
 30
0.0
 40
13.11134816898813
 50
60.000000000000227
 51
66.775799326966037
  0
ARC
  5
86C2
  8
AM_BOR_GAWA
 62
     9
 10
-172.99736002669599
 20
3.1379837538697108
 30
0.0
 40
13.11134816898635
 50
114.3148105519376
 51
119.9999999999999
  0
ARC
  5
86C3
  8
AM_BOR_GAWA
 62
     2
 10
-183.3138180867183
 20
20.398364426390781
 30
0.0
 40
9.1002008532844396
 50
293.22420067303739
 51
301.9026055044751
  0
ARC
  5
86C4
  8
AM_BOR_GAWA
 62
     2
 10
-183.3138180867183
 20
20.398364426390781
 30
0.0
 40
9.1602008532844401
 50
293.22420067303739
 51
301.9026055044751
  0
ARC
  5
86C5
  8
AM_BOR_GAWA
 62
     9
 10
-179.01294863669241
 20
10.18177761335625
 30
0.0
 40
0.3602057009789833
 50
214.70264620889029
 51
269.99999999999682
  0
ARC
  5
86C6
  8
AM_BOR_GAWA
 62
     9
 10
-179.01294863669241
 20
10.18177761335625
 30
0.0
 40
0.3902057009789833
 50
214.70264620889029
 51
269.99999999999682
  0
ARC
  5
86C7
  8
AM_BOR_GAWA
 62
     9
 10
-170.93796868528059
 20
13.861413284611711
 30
0.0
 40
9.1602008532846302
 50
173.22420067303719
 51
181.90260550447451
  0
ARC
  5
86C8
  8
AM_BOR_GAWA
 62
     9
 10
-172.99736002669431
 20
3.1379837538666129
 30
0.0
 40
13.11134816898986
 50
119.9999999999998
 51
125.73572762727041
  0
ARC
  5
86C9
  8
AM_BOR_GAWA
 62
     9
 10
-166.98177141669819
 20
13.557288863816011
 30
0.0
 40
13.11134816898771
 50
184.09925597600829
 51
186.05353928568121
  0
ARC
  5
86CA
  8
AM_BOR_GAWA
 62
     9
 10
-172.97710310361131
 20
12.84495703652313
 30
0.0
 40
7.0738471405589882
 50
190.69940934662679
 51
196.005187528405
  0
ARC
  5
86CB
  8
AM_BOR_GAWA
 62
     2
 10
-172.99736002669391
 20
23.976593973765961
 30
0.0
 40
13.051348168990341
 50
239.99999999999989
 51
240.9213409166664
  0
ARC
  5
86CC
  8
AM_BOR_GAWA
 62
     2
 10
-172.99736002669391
 20
23.976593973765961
 30
0.0
 40
13.11134816899034
 50
239.99999999999989
 51
240.68969923106789
  0
ARC
  5
86CD
  8
AM_BOR_GAWA
 62
     2
 10
-182.89621075665869
 20
19.425149007699371
 30
0.0
 40
8.0711710457255421
 50
283.99481247159451
 51
293.22420067303381
  0
ARC
  5
86CE
  8
AM_BOR_GAWA
 62
     2
 10
-182.89621075665869
 20
19.425149007699371
 30
0.0
 40
8.101171045725545
 50
283.99481247159451
 51
293.22420067303381
  0
ARC
  5
86CF
  8
AM_BOR_GAWA
 62
     2
 10
-172.99736002669599
 20
23.97659397376264
 30
0.0
 40
13.05134816898641
 50
233.22420067303611
 51
240.0
  0
ARC
  5
86D0
  8
AM_BOR_GAWA
 62
     2
 10
-172.99736002669599
 20
23.97659397376264
 30
0.0
 40
13.11134816898641
 50
233.22420067303611
 51
240.0
  0
ARC
  5
86D1
  8
AM_BOR_GAWA
 62
     9
 10
-166.98177141669819
 20
13.557288863816011
 30
0.0
 40
13.11134816898771
 50
179.9999999999994
 51
180.80052464272089
  0
ARC
  5
86D2
  8
AM_BOR_GAWA
 62
     9
 10
-176.71584707485431
 20
11.772523108126411
 30
0.0
 40
3.184332901829126
 50
196.00518752840469
 51
214.70264620888989
  0
ARC
  5
86D3
  8
AM_BOR_GAWA
 62
     8
 10
-179.01294863669241
 20
13.55728886381613
 30
0.0
 40
0.2706412499999846
 50
0.0
 51
180.0
  0
ARC
  5
86D4
  8
AM_BOR_GAWA
 62
     8
 10
-179.01294863669241
 20
13.55728886381613
 30
0.0
 40
0.2706412499999846
 50
180.0
 51
0.0
  0
ARC
  5
86D5
  8
AM_BOR_GAWA
 62
     9
 10
-182.78705913807809
 20
6.412088880445924
 30
0.0
 40
9.1602008532845272
 50
53.704914823739848
 51
56.207998404809409
  0
ARC
  5
86D6
  8
AM_BOR_GAWA
 62
     9
 10
-182.78705913807809
 20
6.412088880445924
 30
0.0
 40
9.1602008532845272
 50
61.16456129043911
 51
61.9026055044733
  0
ARC
  5
86D7
  8
AM_BOR_GAWA
 62
     2
 10
-172.99736002669391
 20
23.976593973765961
 30
0.0
 40
13.11134816899034
 50
244.48677157347041
 51
246.7757993269642
  0
ARC
  5
86D8
  8
AM_BOR_GAWA
 62
     2
 10
-172.99736002669391
 20
23.976593973765961
 30
0.0
 40
13.051348168990341
 50
244.56351767686149
 51
246.7757993269642
  0
ARC
  5
86D9
  8
AM_BOR_GAWA
 62
     2
 10
-185.04879416977269
 20
12.84495703652285
 30
0.0
 40
7.0438471405580838
 50
343.99481247159463
 51
348.90109804237949
  0
ARC
  5
86DA
  8
AM_BOR_GAWA
 62
     2
 10
-191.04412585668521
 20
13.55728886381635
 30
0.0
 40
13.05134816898634
 50
354.43836041756532
 51
355.71430934205762
  0
ARC
  5
86DB
  8
AM_BOR_GAWA
 62
     2
 10
-191.04412585668521
 20
13.55728886381635
 30
0.0
 40
13.11134816898635
 50
354.30488875235619
 51
355.85644349806182
  0
ARC
  5
86DC
  8
AM_BOR_GAWA
 62
     2
 10
-185.04879416977269
 20
12.84495703652285
 30
0.0
 40
7.0738471405580849
 50
343.99481247159463
 51
348.8521063160955
  0
ARC
  5
86DD
  8
AM_BOR_GAWA
 62
     2
 10
-191.04412585668521
 20
13.55728886381635
 30
0.0
 40
13.11134816898635
 50
359.11705802871472
 51
359.99999999999909
  0
ARC
  5
86DE
  8
AM_BOR_GAWA
 62
     2
 10
-191.04412585668521
 20
13.55728886381635
 30
0.0
 40
13.05134816898634
 50
358.9261000392346
 51
359.99999999999909
  0
ARC
  5
86DF
  8
AM_BOR_GAWA
 62
     8
 10
-179.01294863669241
 20
10.181777613356269
 30
0.0
 40
0.3602057009790013
 50
270.0
 51
325.29735379110758
  0
ARC
  5
86E0
  8
AM_BOR_GAWA
 62
     2
 10
-181.3100501985304
 20
11.772523108126361
 30
0.0
 40
3.1843329018290221
 50
325.297353791109
 51
343.99481247159559
  0
ARC
  5
86E1
  8
AM_BOR_GAWA
 62
     8
 10
-179.01294863669241
 20
10.181777613356269
 30
0.0
 40
0.3902057009790013
 50
270.0
 51
325.29735379110758
  0
ARC
  5
86E2
  8
AM_BOR_GAWA
 62
     9
 10
-179.01294863669241
 20
16.93280011427607
 30
0.0
 40
0.3602057009789032
 50
90.0
 51
145.29735379111011
  0
ARC
  5
86E3
  8
AM_BOR_GAWA
 62
     9
 10
-179.01294863669241
 20
16.93280011427607
 30
0.0
 40
0.3902057009789033
 50
90.0
 51
145.29735379111011
  0
ARC
  5
86E4
  8
AM_BOR_GAWA
 62
     9
 10
-182.64776886159299
 20
8.6862592124958269
 30
0.0
 40
7.0738471405587822
 50
66.775799326960964
 51
76.005187528405457
  0
ARC
  5
86E5
  8
AM_BOR_GAWA
 62
     9
 10
-176.71584707485459
 20
15.34205461950582
 30
0.0
 40
3.1843329018288169
 50
145.29735379110491
 51
163.99481247159309
  0
ARC
  5
86E6
  8
AM_BOR_GAWA
 62
     8
 10
-179.01294863669241
 20
16.93280011427597
 30
0.0
 40
0.360205700979
 50
34.70264620889234
 51
90.0
  0
ARC
  5
86E7
  8
AM_BOR_GAWA
 62
     8
 10
-179.01294863669241
 20
16.93280011427597
 30
0.0
 40
0.390205700979
 50
34.70264620889234
 51
90.0
  0
ARC
  5
86E8
  8
AM_BOR_GAWA
 62
     2
 10
-185.04879416977471
 20
14.26962069110891
 30
0.0
 40
7.0438471405601399
 50
6.7757993269636314
 51
16.005187528404392
  0
ARC
  5
86E9
  8
AM_BOR_GAWA
 62
     2
 10
-185.04879416977471
 20
14.26962069110891
 30
0.0
 40
7.0738471405601411
 50
6.7757993269636314
 51
16.005187528404392
  0
ARC
  5
86EA
  8
AM_BOR_GAWA
 62
     2
 10
-181.31005019853049
 20
15.342054619505889
 30
0.0
 40
3.1843329018291282
 50
16.005187528404349
 51
34.702646208889071
  0
ARC
  5
86EB
  8
AM_BOR_GAWA
 62
     8
 10
-176.089670143034
 20
15.24504448904602
 30
0.0
 40
0.3902057009790011
 50
334.70264620889651
 51
30.000000000002132
  0
ARC
  5
86EC
  8
AM_BOR_GAWA
 62
     2
 10
-178.6158469333796
 20
16.439020049285642
 30
0.0
 40
3.184332901829094
 50
316.00518752840509
 51
334.70264620889122
  0
ARC
  5
86ED
  8
AM_BOR_GAWA
 62
     9
 10
-176.08967014303391
 20
11.869533238586209
 30
0.0
 40
0.3602057009789722
 50
329.999999999995
 51
25.29735379110117
  0
ARC
  5
86EE
  8
AM_BOR_GAWA
 62
     8
 10
-176.089670143034
 20
11.86953323858622
 30
0.0
 40
0.3602057009790059
 50
274.70264620888821
 51
329.99999999999687
  0
ARC
  5
86EF
  8
AM_BOR_GAWA
 62
     8
 10
-176.089670143034
 20
11.86953323858622
 30
0.0
 40
0.3902057009790059
 50
274.70264620888821
 51
329.99999999999687
  0
ARC
  5
86F0
  8
AM_BOR_GAWA
 62
     9
 10
-178.6158469333792
 20
10.67555767834682
 30
0.0
 40
3.1843329018287019
 50
25.29735379110366
 51
43.994812471595417
  0
ARC
  5
86F1
  8
AM_BOR_GAWA
 62
     9
 10
-176.08967014303391
 20
11.869533238586209
 30
0.0
 40
0.3902057009789722
 50
329.999999999995
 51
25.29735379110117
  0
ARC
  5
86F2
  8
AM_BOR_GAWA
 62
     2
 10
-181.41397394487291
 20
19.140650342429879
 30
0.0
 40
7.0438471405590652
 50
306.77579932696142
 51
316.00518752840401
  0
ARC
  5
86F3
  8
AM_BOR_GAWA
 62
     2
 10
-176.3187453715415
 20
14.6542542935961
 30
0.0
 40
3.1843329018292259
 50
256.00518752840549
 51
274.70264620888821
  0
ARC
  5
86F4
  8
AM_BOR_GAWA
 62
     9
 10
-182.1530335271662
 20
7.2603551464297906
 30
0.0
 40
8.1011710457255148
 50
43.994812471595239
 51
48.985695614696859
  0
ARC
  5
86F5
  8
AM_BOR_GAWA
 62
     2
 10
-181.41397394487291
 20
19.140650342429879
 30
0.0
 40
7.0738471405590664
 50
306.77579932696142
 51
316.00518752840401
  0
ARC
  5
86F6
  8
AM_BOR_GAWA
 62
     9
 10
-176.08967014303391
 20
15.24504448904608
 30
0.0
 40
0.3602057009789445
 50
29.999999999997879
 51
85.297353791105266
  0
ARC
  5
86F7
  8
AM_BOR_GAWA
 62
     8
 10
-176.089670143034
 20
15.24504448904602
 30
0.0
 40
0.3602057009790011
 50
334.70264620889651
 51
30.000000000002132
  0
ARC
  5
86F8
  8
AM_BOR_GAWA
 62
     9
 10
-176.08967014303391
 20
15.24504448904608
 30
0.0
 40
0.3902057009789445
 50
29.999999999997879
 51
85.297353791105266
  0
ARC
  5
86F9
  8
AM_BOR_GAWA
 62
     9
 10
-176.3187453715415
 20
12.4603234340362
 30
0.0
 40
3.1843329018291722
 50
85.297353791105266
 51
103.9948124715944
  0
SOLID
  5
86FA
  8
AM_BOR_GAWA
 62
     9
 10
-171.69197582240329
 20
15.60697140475172
 30
0.0
 11
-171.0919758224033
 21
15.356974404751719
 31
0.0
 12
-171.69197582240329
 22
14.49197500475173
 32
0.0
 13
-171.0919758224033
 23
14.71697200475173
 33
0.0
  0
SOLID
  5
86FB
  8
AM_BOR_GAWA
 62
     9
 10
-171.2021178224033
 20
14.16697560475172
 30
0.0
 11
-170.6021178224033
 21
13.866974404751719
 31
0.0
 12
-171.2021178224033
 22
13.206974404751721
 32
0.0
 13
-170.6021178224033
 23
13.50697200475172
 33
0.0
  0
SOLID
  5
86FC
  8
AM_BOR_GAWA
 62
     9
 10
-171.69197582240329
 20
14.49197500475173
 30
0.0
 11
-171.1050678224033
 21
14.49197500475173
 31
0.0
 12
-172.20197582240331
 22
13.206974404751721
 32
0.0
 13
-171.61506782240329
 23
13.206974404751721
 33
0.0
  0
SOLID
  5
86FD
  8
AM_BOR_GAWA
 62
     9
 10
-172.20197582240331
 20
16.21664940475172
 30
0.0
 11
-170.04197582240329
 21
16.80697140475171
 31
0.0
 12
-172.20197582240331
 22
15.852738604751719
 32
0.0
 13
-170.04197582240329
 23
16.443060604751722
 33
0.0
  0
SOLID
  5
86FE
  8
AM_BOR_GAWA
 62
     9
 10
-170.94198182240331
 20
16.084039404751721
 30
0.0
 11
-169.14197582240331
 21
16.084039404751721
 31
0.0
 12
-170.94198182240331
 22
15.864043004751711
 32
0.0
 13
-169.14197582240331
 23
15.864043004751711
 33
0.0
  0
SOLID
  5
86FF
  8
AM_BOR_GAWA
 62
     9
 10
-165.4019758224033
 20
15.738188404751719
 30
0.0
 11
-165.0269758224033
 21
15.94818960475172
 31
0.0
 12
-165.4019758224033
 22
15.018186604751721
 32
0.0
 13
-165.0269758224033
 23
14.748189604751721
 33
0.0
  0
SOLID
  5
8700
  8
AM_BOR_GAWA
 62
     9
 10
-166.38697582240329
 20
15.28818780475172
 30
0.0
 11
-165.8369758224033
 21
15.28818780475172
 31
0.0
 12
-166.38697582240329
 22
15.018186604751721
 32
0.0
 13
-165.8369758224033
 23
15.018186604751721
 33
0.0
  0
SOLID
  5
8701
  8
AM_BOR_GAWA
 62
     9
 10
-168.99198182240329
 20
15.356974404751719
 30
0.0
 11
-168.3919818224033
 21
15.60697140475172
 31
0.0
 12
-168.99198182240329
 22
14.71697200475173
 32
0.0
 13
-168.3919818224033
 23
14.49197500475173
 33
0.0
  0
SOLID
  5
8702
  8
AM_BOR_GAWA
 62
     9
 10
-167.19697582240329
 20
15.94818960475172
 30
0.0
 11
-166.8219698224033
 21
15.738188404751719
 31
0.0
 12
-167.19697582240329
 22
14.748189604751721
 32
0.0
 13
-166.8219698224033
 23
15.018186604751721
 33
0.0
  0
SOLID
  5
8703
  8
AM_BOR_GAWA
 62
     9
 10
-166.38697582240329
 20
14.110455804751719
 30
0.0
 11
-165.8369758224033
 21
14.110455804751719
 31
0.0
 12
-167.25697582240329
 22
13.206974404751721
 32
0.0
 13
-166.68196982240329
 23
13.206974404751721
 33
0.0
  0
SOLID
  5
8704
  8
AM_BOR_GAWA
 62
     9
 10
-167.19697582240329
 20
14.385458804751719
 30
0.0
 11
-165.0269758224033
 21
14.385458804751719
 31
0.0
 12
-167.19697582240329
 22
14.110455804751719
 32
0.0
 13
-165.0269758224033
 23
14.110455804751719
 33
0.0
  0
SOLID
  5
8705
  8
AM_BOR_GAWA
 62
     9
 10
-166.8219698224033
 20
15.018186604751721
 30
0.0
 11
-165.4019758224033
 21
15.018186604751721
 31
0.0
 12
-167.19697582240329
 22
14.748189604751721
 32
0.0
 13
-165.0269758224033
 23
14.748189604751721
 33
0.0
  0
ARC
  5
8706
  8
AM_BOR_GAWA
 62
     9
 10
-168.44212382240329
 20
13.926975604751719
 30
0.0
 40
0.120000000000001
 50
0.0
 51
180.0
  0
ARC
  5
8707
  8
AM_BOR_GAWA
 62
     9
 10
-168.44212382240329
 20
13.926975604751719
 30
0.0
 40
0.120000000000001
 50
180.0
 51
0.0
  0
SOLID
  5
8708
  8
AM_BOR_GAWA
 62
     9
 10
-168.8021118224033
 20
13.866974404751719
 30
0.0
 11
-168.44212382240329
 21
14.16697560475172
 31
0.0
 12
-168.8021118224033
 22
13.866974404751719
 32
0.0
 13
-168.20212382240331
 23
13.926975604751719
 33
0.0
  0
SOLID
  5
8709
  8
AM_BOR_GAWA
 62
     9
 10
-168.8021118224033
 20
13.866974404751719
 30
0.0
 11
-168.20212382240331
 21
13.926975604751719
 31
0.0
 12
-168.8021118224033
 22
13.50697200475172
 32
0.0
 13
-168.20212382240331
 23
13.206974404751721
 33
0.0
  0
SOLID
  5
870A
  8
AM_BOR_GAWA
 62
     9
 10
-166.38697582240329
 20
14.748189604751721
 30
0.0
 11
-165.8369758224033
 21
14.748189604751721
 31
0.0
 12
-166.38697582240329
 22
14.385458804751719
 32
0.0
 13
-165.8369758224033
 23
14.385458804751719
 33
0.0
  0
SOLID
  5
870B
  8
AM_BOR_GAWA
 62
     9
 10
-165.60656982240329
 20
13.598670604751719
 30
0.0
 11
-165.05197582240331
 21
13.838670004751719
 31
0.0
 12
-165.6712138224033
 22
13.206974404751721
 32
0.0
 13
-165.15621382240329
 23
13.206974404751721
 33
0.0
  0
SOLID
  5
870C
  8
AM_BOR_GAWA
 62
     9
 10
-166.1306376248051
 20
13.838670004751719
 30
0.0
 11
-165.05197582240331
 21
13.838670004751719
 31
0.0
 12
-166.3276918224033
 22
13.598670604751719
 32
0.0
 13
-165.60656982240329
 23
13.598670604751719
 33
0.0
  0
SOLID
  5
870D
  8
AM_BOR_GAWA
 62
     9
 10
-167.19697582240329
 20
15.94818960475172
 30
0.0
 11
-165.0269758224033
 21
15.94818960475172
 31
0.0
 12
-166.8219698224033
 22
15.738188404751719
 32
0.0
 13
-165.4019758224033
 23
15.738188404751719
 33
0.0
  0
SOLID
  5
870E
  8
AM_BOR_GAWA
 62
     9
 10
-167.19697582240329
 20
16.52331720475172
 30
0.0
 11
-165.48197582240331
 21
16.52331720475172
 31
0.0
 12
-167.19697582240329
 22
16.248314804751718
 32
0.0
 13
-165.0269758224033
 23
16.248314804751718
 33
0.0
  0
SOLID
  5
870F
  8
AM_BOR_GAWA
 62
     9
 10
-166.38697582240329
 20
15.738188404751719
 30
0.0
 11
-165.8369758224033
 21
15.738188404751719
 31
0.0
 12
-166.38697582240329
 22
15.46818720475172
 32
0.0
 13
-165.8369758224033
 23
15.46818720475172
 33
0.0
  0
SOLID
  5
8710
  8
AM_BOR_GAWA
 62
     9
 10
-166.38697582240329
 20
16.248314804751718
 30
0.0
 11
-165.8369758224033
 21
16.248314804751718
 31
0.0
 12
-166.38697582240329
 22
15.94818960475172
 32
0.0
 13
-165.8369758224033
 23
15.94818960475172
 33
0.0
  0
SOLID
  5
8711
  8
AM_BOR_GAWA
 62
     9
 10
-166.8219698224033
 20
15.46818720475172
 30
0.0
 11
-165.4019758224033
 21
15.46818720475172
 31
0.0
 12
-166.8219698224033
 22
15.28818780475172
 32
0.0
 13
-165.4019758224033
 23
15.28818780475172
 33
0.0
  0
SOLID
  5
8712
  8
AM_BOR_GAWA
 62
     9
 10
-166.38697582240329
 20
16.735162004751722
 30
0.0
 11
-165.8369758224033
 21
16.735162004751722
 31
0.0
 12
-166.38697582240329
 22
16.52331720475172
 32
0.0
 13
-165.8369758224033
 23
16.52331720475172
 33
0.0
  0
SOLID
  5
8713
  8
AM_BOR_GAWA
 62
     9
 10
-165.48197582240331
 20
16.80697140475171
 30
0.0
 11
-165.0269758224033
 21
16.80697140475171
 31
0.0
 12
-165.48197582240331
 22
16.52331720475172
 32
0.0
 13
-165.0269758224033
 23
16.248314804751718
 33
0.0
  0
SOLID
  5
8714
  8
AM_BOR_GAWA
 62
     9
 10
-161.70197582240331
 20
15.446812204751719
 30
0.0
 11
-161.1019698224033
 21
15.846670204751719
 31
0.0
 12
-161.70197582240331
 22
13.206974404751721
 32
0.0
 13
-161.1019698224033
 23
13.206974404751721
 33
0.0
  0
SOLID
  5
8715
  8
AM_BOR_GAWA
 62
     9
 10
-163.79176382240331
 20
15.841009804751719
 30
0.0
 11
-163.19176382240329
 21
15.841009804751719
 31
0.0
 12
-163.95010382240329
 22
14.946748804751721
 32
0.0
 13
-163.4926998224033
 23
14.141406604751721
 33
0.0
  0
SOLID
  5
8716
  8
AM_BOR_GAWA
 62
     9
 10
-164.78307182240329
 20
15.35692080475172
 30
0.0
 11
-164.18307182240329
 21
15.35692080475172
 31
0.0
 12
-163.5619758224033
 22
13.206974404751721
 32
0.0
 13
-162.96196982240329
 23
13.206974404751721
 33
0.0
  0
SOLID
  5
8717
  8
AM_BOR_GAWA
 62
     9
 10
-164.16213924125941
 20
14.26366379017373
 30
0.0
 11
-163.86723802966239
 21
13.74444024163337
 31
0.0
 12
-164.78307182240329
 22
13.206974404751721
 32
0.0
 13
-164.18307182240329
 23
13.206974404751721
 33
0.0
  0
ARC
  5
8718
  8
AM_BOR_GAWA
 62
     9
 10
-164.50307182240331
 20
16.095072304751721
 30
0.0
 40
0.1059375000000006
 50
352.37185033141861
 51
187.62814966858139
  0
ARC
  5
8719
  8
AM_BOR_GAWA
 62
     9
 10
-164.50307182240331
 20
16.066947304751711
 30
0.0
 40
0.1059375000000006
 50
172.37185033141861
 51
7.6281496685814281
  0
SOLID
  5
871A
  8
AM_BOR_GAWA
 62
     9
 10
-164.15807182240329
 20
16.20101280475172
 30
0.0
 11
-162.96196982240329
 21
16.20101280475172
 31
0.0
 12
-164.4880718224033
 22
15.841009804751719
 32
0.0
 13
-162.96196982240329
 23
15.841009804751719
 33
0.0
  0
SOLID
  5
871B
  8
AM_BOR_GAWA
 62
     9
 10
-164.72807182240331
 20
16.081009804751709
 30
0.0
 11
-164.15807182240329
 21
16.20101280475172
 31
0.0
 12
-164.4880718224033
 22
15.841009804751719
 32
0.0
 13
-164.15807182240329
 23
16.20101280475172
 33
0.0
  0
SOLID
  5
871C
  8
AM_BOR_GAWA
 62
     9
 10
-164.72807182240331
 20
16.710162004751719
 30
0.0
 11
-164.15807182240329
 21
16.710162004751719
 31
0.0
 12
-164.72807182240331
 22
16.081009804751709
 32
0.0
 13
-164.15807182240329
 23
16.20101280475172
 33
0.0
  0
LINE
  5
871D
  8
AM_BOR_GAWA
 62
     9
 10
-184.00000016526539
 20
8.9999998347345151
 30
0.0
 11
-0.0000001652655328
 21
8.9999998347345151
 31
0.0
  0
LINE
  5
871E
  8
AM_BOR_GAWA
 62
     9
 10
-184.00000016526539
 20
17.99999983473451
 30
0.0
 11
-0.000000165265476
 21
17.99999983473451
 31
0.0
  0
TEXT
  5
871F
  8
AM_BOR_GAWA
 62
     8
 10
-173.80843588774641
 20
9.8430522625327086
 30
0.0
 40
2.0
  1
KURASHIKI  KAKO  CO.,  LTD.
  7
SMP-SET
  0
TEXT
  5
8720
  8
AM_BOR_GAWA
 62
     9
 10
-154.9680232320388
 20
6.3733438347345173
 30
0.0
 40
1.1000000000000001
  1
・DRAWN
  7
SMP-SET
  0
TEXT
  5
8721
  8
AM_BOR_GAWA
 62
     9
 10
-165.89395198361461
 20
6.3733438347345173
 30
0.0
 40
1.1000000000000001
  1
・CHKD
  7
SMP-SET
  0
TEXT
  5
8722
  8
AM_BOR_GAWA
 62
     9
 10
-159.5157668626608
 20
5.999999834734516
 30
0.0
 40
2.1999999999999988
  1
作成
  7
CMP-SET
  0
LINE
  5
8723
  8
AM_BOR_GAWA
 62
     9
 10
-160.00000016526539
 20
8.9999998347345151
 30
0.0
 11
-160.00000016526539
 21
-0.0000001652654875
 31
0.0
  0
SOLID
  5
8724
  8
AM_BOR_GAWA
 62
     9
 10
-162.3619698224033
 20
15.60697140475172
 30
0.0
 11
-160.56132782240331
 21
16.80697140475171
 31
0.0
 12
-162.3619698224033
 22
15.00697320475172
 32
0.0
 13
-160.56132782240331
 23
16.206973204751719
 33
0.0
  0
SOLID
  5
8725
  8
AM_BOR_GAWA
 62
     9
 10
-157.14196382240331
 20
16.80697140475171
 30
0.0
 11
-153.42196382240331
 21
16.80697140475171
 31
0.0
 12
-157.14196382240331
 22
16.32697320475172
 32
0.0
 13
-153.42196382240331
 23
16.32697320475172
 33
0.0
  0
SOLID
  5
8726
  8
AM_BOR_GAWA
 62
     9
 10
-157.4419638224033
 20
13.806973204751721
 30
0.0
 11
-153.1219638224033
 21
13.806973204751721
 31
0.0
 12
-157.4419638224033
 22
13.206974404751721
 32
0.0
 13
-153.1219638224033
 23
13.206974404751721
 33
0.0
  0
SOLID
  5
8727
  8
AM_BOR_GAWA
 62
     9
 10
-160.2019698224033
 20
16.80697140475171
 30
0.0
 11
-159.60196382240329
 21
16.80697140475171
 31
0.0
 12
-160.2019698224033
 22
13.446974404751719
 32
0.0
 13
-159.60196382240329
 23
13.806973204751721
 33
0.0
  0
SOLID
  5
8728
  8
AM_BOR_GAWA
 62
     9
 10
-159.60196382240329
 20
13.806973204751721
 30
0.0
 11
-158.0419698224033
 21
13.806973204751721
 31
0.0
 12
-159.96196982240329
 22
13.20697440475173
 32
0.0
 13
-158.0419698224033
 23
13.206974404751721
 33
0.0
  0
ARC
  5
8729
  8
AM_BOR_GAWA
 62
     9
 10
-159.96196982240329
 20
13.446974404751719
 30
0.0
 40
0.1200000000000045
 50
0.0
 51
180.0
  0
ARC
  5
872A
  8
AM_BOR_GAWA
 62
     9
 10
-159.96196982240329
 20
13.446974404751719
 30
0.0
 40
0.1199999999999974
 50
180.0
 51
0.0
  0
SOLID
  5
872B
  8
AM_BOR_GAWA
 62
     9
 10
-160.2019698224033
 20
13.446974404751719
 30
0.0
 11
-159.60196382240329
 21
13.806973204751721
 31
0.0
 12
-159.96196982240329
 22
13.20697440475173
 32
0.0
 13
-159.60196382240329
 23
13.806973204751721
 33
0.0
  0
SOLID
  5
872C
  8
AM_BOR_GAWA
 62
     9
 10
-159.60196382240329
 20
15.91262160475172
 30
0.0
 11
-158.0419698224033
 21
16.311547804751719
 31
0.0
 12
-159.60196382240329
 22
15.31262340475172
 32
0.0
 13
-158.0419698224033
 23
15.71154960475172
 33
0.0
  0
SOLID
  5
872D
  8
AM_BOR_GAWA
 62
     9
 10
-155.58196382240331
 20
16.32697320475172
 30
0.0
 11
-154.98196382240329
 21
16.32697320475172
 31
0.0
 12
-155.58196382240331
 22
13.806973204751721
 32
0.0
 13
-154.98196382240329
 23
13.806973204751721
 33
0.0
  0
LINE
  5
872E
  8
AM_BOR_GAWA
 62
     9
 10
-121.54140550284001
 20
11.630361612480231
 30
0.0
 11
-115.2487803573113
 21
11.630361612480231
 31
0.0
  0
LINE
  5
872F
  8
AM_BOR_GAWA
 62
     9
 10
-115.96674688677319
 20
13.4848497510509
 30
0.0
 11
-120.8171699842127
 21
12.52636161615475
 31
0.0
  0
LINE
  5
8730
  8
AM_BOR_GAWA
 62
     9
 10
-120.8171699842127
 20
10.73436160880571
 30
0.0
 11
-115.96674688677319
 21
9.7758734739095576
 31
0.0
  0
TEXT
  5
8731
  8
AM_BOR_GAWA
 62
     9
 10
-128.15561088377481
 20
14.6932520095637
 30
0.0
 40
2.299999999999998
  1
三　角　法
  7
CMP-SET
  0
TEXT
  5
8732
  8
AM_BOR_GAWA
 62
     9
 10
-120.5368532833831
 20
6.3733438347345173
 30
0.0
 40
1.1000000000000001
  1
・DATE
  7
SMP-SET
  0
LINE
  5
8733
  8
AM_BOR_GAWA
 62
     9
 10
-129.0000001652655
 20
17.999999834734489
 30
0.0
 11
-129.00000016526539
 21
8.9999998347345151
 31
0.0
  0
TEXT
  5
8734
  8
AM_BOR_GAWA
 62
     9
 10
-141.71394104807121
 20
6.3733438347345173
 30
0.0
 40
1.1000000000000001
  1
・SCALE
  7
SMP-SET
  0
TEXT
  5
8735
  8
AM_BOR_GAWA
 62
     9
 10
-146.94970769995351
 20
5.999999834734516
 30
0.0
 40
2.1999999999999988
  1
尺度
  7
CMP-SET
  0
LINE
  5
8736
  8
AM_BOR_GAWA
 62
     9
 10
-148.0000001652655
 20
8.9999998347345151
 30
0.0
 11
-148.0000001652655
 21
-0.0000001652654911
 31
0.0
  0
TEXT
  5
8737
  8
AM_BOR_GAWA
 62
     9
 10
-133.69025740807069
 20
5.999999834734516
 30
0.0
 40
2.1999999999999988
  1
作成年月日
  7
CMP-SET
  0
LINE
  5
8738
  8
AM_BOR_GAWA
 62
     9
 10
-135.00000016526539
 20
8.9999998347345151
 30
0.0
 11
-135.00000016526539
 21
-0.0000001652654937
 31
0.0
  0
SOLID
  5
8739
  8
AM_BOR_GAWA
 62
     9
 10
-136.56194582240329
 20
15.726970804751719
 30
0.0
 11
-135.84194582240329
 21
15.77667223223342
 31
0.0
 12
-136.56194582240329
 22
15.726970804751719
 32
0.0
 13
-135.87709319773839
 23
15.691819229414
 33
0.0
  0
SOLID
  5
873A
  8
AM_BOR_GAWA
 62
     9
 10
-136.56194582240329
 20
15.726970804751719
 30
0.0
 11
-135.84194582240329
 21
15.966970204751719
 31
0.0
 12
-136.56194582240329
 22
15.726970804751719
 32
0.0
 13
-135.84194582240329
 23
15.77667223223342
 33
0.0
  0
SOLID
  5
873B
  8
AM_BOR_GAWA
 62
     9
 10
-136.56194582240329
 20
15.726970804751719
 30
0.0
 11
-135.96194582240329
 21
16.086970204751719
 31
0.0
 12
-136.56194582240329
 22
15.726970804751719
 32
0.0
 13
-135.84194582240329
 23
15.966970204751719
 33
0.0
  0
SOLID
  5
873C
  8
AM_BOR_GAWA
 62
     9
 10
-137.5219458224033
 20
16.80697140475171
 30
0.0
 11
-135.84194582240329
 21
16.80697140475171
 31
0.0
 12
-137.5219458224033
 22
16.446972604751721
 32
0.0
 13
-135.84194582240329
 23
16.446972604751721
 33
0.0
  0
SOLID
  5
873D
  8
AM_BOR_GAWA
 62
     9
 10
-137.76194582240331
 20
16.086970204751719
 30
0.0
 11
-135.96194582240329
 21
16.086970204751719
 31
0.0
 12
-137.76194582240331
 22
15.726970804751719
 32
0.0
 13
-136.56194582240329
 23
15.726970804751719
 33
0.0
  0
SOLID
  5
873E
  8
AM_BOR_GAWA
 62
     9
 10
-136.44194582240331
 20
14.526965796038519
 30
0.0
 11
-135.92768721926001
 21
14.01270948473152
 31
0.0
 12
-136.44194582240331
 22
14.526965796038519
 32
0.0
 13
-136.44194582240331
 23
14.526965796038519
 33
0.0
  0
SOLID
  5
873F
  8
AM_BOR_GAWA
 62
     9
 10
-135.92768721926001
 20
14.01270948473152
 30
0.0
 11
-135.92768721926001
 21
14.73270888473151
 31
0.0
 12
-136.44194582240331
 22
14.526965796038519
 32
0.0
 13
-135.92768721926001
 23
14.01270948473152
 33
0.0
  0
LINE
  5
8740
  8
AM_BOR_GAWA
 62
     9
 10
-136.44194582240331
 20
14.52696579603851
 30
0.0
 11
-135.92768721926001
 21
14.01270948473152
 31
0.0
  0
SOLID
  5
8741
  8
AM_BOR_GAWA
 62
     9
 10
-136.38194751802749
 20
15.186967159050161
 30
0.0
 11
-135.92768721926001
 21
14.73270888473151
 31
0.0
 12
-136.44194582240331
 22
14.526965796038519
 32
0.0
 13
-135.92768721926001
 23
14.01270948473152
 33
0.0
  0
SOLID
  5
8742
  8
AM_BOR_GAWA
 62
     9
 10
-136.56194582240329
 20
15.726970804751719
 30
0.0
 11
-135.87709318892709
 21
15.69181923822525
 31
0.0
 12
-137.76194582240331
 22
14.526974404751719
 32
0.0
 13
-137.76194582240331
 23
13.80697500475172
 33
0.0
  0
SOLID
  5
8743
  8
AM_BOR_GAWA
 62
     9
 10
-145.0533166571478
 20
15.9669808281363
 30
0.0
 11
-144.4076671200753
 21
16.542895450078479
 31
0.0
 12
-145.0533166571478
 22
15.9669808281363
 32
0.0
 13
-144.21331382240331
 23
15.96697800475172
 33
0.0
  0
SOLID
  5
8744
  8
AM_BOR_GAWA
 62
     9
 10
-145.31652595645781
 20
16.746970204751719
 30
0.0
 11
-144.69191762105811
 21
16.746970204751719
 31
0.0
 12
-145.0533198224033
 22
15.96697800475172
 32
0.0
 13
-144.4076671200753
 23
16.542895450078479
 33
0.0
  0
SOLID
  5
8745
  8
AM_BOR_GAWA
 62
     9
 10
-147.60195782240331
 20
15.96697800475172
 30
0.0
 11
-143.2819518224033
 21
15.96697800475172
 31
0.0
 12
-147.60195782240331
 22
15.606975004751719
 32
0.0
 13
-143.2819518224033
 23
15.606975004751719
 33
0.0
  0
SOLID
  5
8746
  8
AM_BOR_GAWA
 62
     9
 10
-144.9318318224033
 20
15.606975004751719
 30
0.0
 11
-144.09183782240331
 21
15.606975004751719
 31
0.0
 12
-144.12194582240329
 22
13.206974404751721
 32
0.0
 13
-143.2819518224033
 23
13.206974404751721
 33
0.0
  0
SOLID
  5
8747
  8
AM_BOR_GAWA
 62
     9
 10
-150.72196982240331
 20
15.63166080475172
 30
0.0
 11
-148.2019578224033
 21
15.63166080475172
 31
0.0
 12
-150.72196982240331
 22
15.271658404751721
 32
0.0
 13
-148.2019578224033
 23
15.271658404751721
 33
0.0
  0
SOLID
  5
8748
  8
AM_BOR_GAWA
 62
     9
 10
-150.12196982240329
 20
16.379158204751711
 30
0.0
 11
-148.2019578224033
 21
16.379158204751711
 31
0.0
 12
-150.4819698224033
 22
16.019155204751719
 32
0.0
 13
-148.2019578224033
 23
16.019155204751719
 33
0.0
  0
SOLID
  5
8749
  8
AM_BOR_GAWA
 62
     9
 10
-149.19195782240331
 20
15.271658404751721
 30
0.0
 11
-148.2019578224033
 21
14.106973804751719
 31
0.0
 12
-149.19195782240331
 22
14.37165900475172
 32
0.0
 13
-148.2019578224033
 23
13.206974404751721
 33
0.0
  0
SOLID
  5
874A
  8
AM_BOR_GAWA
 62
     9
 10
-150.72196982240331
 20
14.106973804751719
 30
0.0
 11
-149.79196382240329
 21
15.271658404751721
 31
0.0
 12
-150.72196982240331
 22
13.206974404751721
 32
0.0
 13
-149.79196382240329
 23
14.37165900475172
 33
0.0
  0
SOLID
  5
874B
  8
AM_BOR_GAWA
 62
     9
 10
-151.37896982240329
 20
15.63166080475172
 30
0.0
 11
-150.8389578224033
 21
15.00697320475172
 31
0.0
 12
-151.37896982240329
 22
14.911659604751719
 32
0.0
 13
-150.8389578224033
 23
14.28697140475172
 33
0.0
  0
SOLID
  5
874C
  8
AM_BOR_GAWA
 62
     9
 10
-151.97896982240329
 20
16.019159404751719
 30
0.0
 11
-151.37896982240329
 21
16.019159404751719
 31
0.0
 12
-151.97896982240329
 22
13.20697080475172
 32
0.0
 13
-151.37896982240329
 23
13.20697080475172
 33
0.0
  0
SOLID
  5
874D
  8
AM_BOR_GAWA
 62
     9
 10
-149.79196382240329
 20
15.271658404751721
 30
0.0
 11
-149.19195782240331
 21
15.271658404751721
 31
0.0
 12
-149.79196382240329
 22
13.20697080475172
 32
0.0
 13
-149.19195782240331
 23
13.20697080475172
 33
0.0
  0
SOLID
  5
874E
  8
AM_BOR_GAWA
 62
     9
 10
-152.52196382240331
 20
14.53805340475172
 30
0.0
 11
-151.985411878706
 21
15.61868629592878
 31
0.0
 12
-152.52196382240331
 22
13.638054604751719
 32
0.0
 13
-151.97896982240329
 23
14.731662004751721
 33
0.0
  0
ARC
  5
874F
  8
AM_BOR_GAWA
 62
     9
 10
-150.4819698224033
 20
16.259155204751721
 30
0.0
 40
0.1200000000000045
 50
0.0
 51
180.0
  0
ARC
  5
8750
  8
AM_BOR_GAWA
 62
     9
 10
-150.4819698224033
 20
16.259155204751721
 30
0.0
 40
0.1199999999999974
 50
180.0
 51
0.0
  0
SOLID
  5
8751
  8
AM_BOR_GAWA
 62
     9
 10
-150.72196982240331
 20
16.259155204751721
 30
0.0
 11
-150.12196982240329
 21
16.379158204751711
 31
0.0
 12
-150.4819698224033
 22
16.019155204751719
 32
0.0
 13
-150.12196982240329
 23
16.379158204751711
 33
0.0
  0
SOLID
  5
8752
  8
AM_BOR_GAWA
 62
     9
 10
-150.72196982240331
 20
16.80697140475171
 30
0.0
 11
-150.12196982240329
 21
16.80697140475171
 31
0.0
 12
-150.72196982240331
 22
16.259155204751721
 32
0.0
 13
-150.12196982240329
 23
16.379158204751711
 33
0.0
  0
SOLID
  5
8753
  8
AM_BOR_GAWA
 62
     9
 10
-151.97896982240329
 20
16.80697140475171
 30
0.0
 11
-151.37896982240329
 21
16.80697140475171
 31
0.0
 12
-151.97896982240329
 22
16.379158204751711
 32
0.0
 13
-151.37896982240329
 23
16.379158204751711
 33
0.0
  0
SOLID
  5
8754
  8
AM_BOR_GAWA
 62
     9
 10
-152.51896382240329
 20
16.379158204751711
 30
0.0
 11
-150.8389578224033
 21
16.379158204751711
 31
0.0
 12
-152.51896382240329
 22
16.019159404751719
 32
0.0
 13
-150.8389578224033
 23
16.019159404751719
 33
0.0
  0
SOLID
  5
8755
  8
AM_BOR_GAWA
 62
     9
 10
-149.79196382240329
 20
16.019155204751719
 30
0.0
 11
-149.19195782240331
 21
16.019155204751719
 31
0.0
 12
-149.79196382240329
 22
15.63166080475172
 32
0.0
 13
-149.19195782240331
 23
15.63166080475172
 33
0.0
  0
SOLID
  5
8756
  8
AM_BOR_GAWA
 62
     9
 10
-149.79196382240329
 20
16.80697140475171
 30
0.0
 11
-149.19195782240331
 21
16.80697140475171
 31
0.0
 12
-149.79196382240329
 22
16.379158204751711
 32
0.0
 13
-149.19195782240331
 23
16.379158204751711
 33
0.0
  0
SOLID
  5
8757
  8
AM_BOR_GAWA
 62
     9
 10
-147.48195182240329
 20
15.12697680475172
 30
0.0
 11
-144.96195782240329
 21
15.12697680475172
 31
0.0
 12
-147.48195182240329
 22
14.76697380475172
 32
0.0
 13
-144.96195782240329
 23
14.76697380475172
 33
0.0
  0
SOLID
  5
8758
  8
AM_BOR_GAWA
 62
     9
 10
-146.58196382240331
 20
14.76697380475172
 30
0.0
 11
-145.98196382240329
 21
14.76697380475172
 31
0.0
 12
-146.58196382240331
 22
14.01503040475172
 32
0.0
 13
-145.98196382240329
 23
14.137416604751721
 33
0.0
  0
SOLID
  5
8759
  8
AM_BOR_GAWA
 62
     9
 10
-147.60195782240331
 20
13.806973204751721
 30
0.0
 11
-144.96195782240329
 21
14.34547380475172
 31
0.0
 12
-147.60195782240331
 22
13.206974404751721
 32
0.0
 13
-144.96195782240329
 23
13.74547560475172
 33
0.0
  0
LINE
  5
875A
  8
AM_BOR_GAWA
 62
     9
 10
-144.9694057331721
 20
16.281261069668769
 30
0.0
 11
-144.88276930797531
 21
16.0245325182876
 31
0.0
  0
ARC
  5
875B
  8
AM_BOR_GAWA
 62
     9
 10
-145.36735693350411
 20
16.146967204751729
 30
0.0
 40
0.4199999999999946
 50
18.647643196984809
 51
90.0
  0
LINE
  5
875C
  8
AM_BOR_GAWA
 62
     9
 10
-146.34195782240329
 20
16.56696720475172
 30
0.0
 11
-145.36735693350411
 21
16.56696720475172
 31
0.0
  0
ARC
  5
875D
  8
AM_BOR_GAWA
 62
     9
 10
-144.69191762105811
 20
16.446970204751722
 30
0.0
 40
0.1499999999999986
 50
0.0
 51
180.0
  0
ARC
  5
875E
  8
AM_BOR_GAWA
 62
     9
 10
-144.69191762105811
 20
16.446970204751722
 30
0.0
 40
0.1499999999999986
 50
180.0
 51
0.0
  0
LINE
  5
875F
  8
AM_BOR_GAWA
 62
     9
 10
-141.1354709067632
 20
13.50697500475172
 30
0.0
 11
-139.76195582240331
 21
13.50697500475172
 31
0.0
  0
SOLID
  5
8760
  8
AM_BOR_GAWA
 62
     9
 10
-141.7819518224033
 20
15.666973204751731
 30
0.0
 11
-139.26195182240329
 21
15.666973204751731
 31
0.0
 12
-141.7819518224033
 22
15.331974404751721
 32
0.0
 13
-139.26195182240329
 23
15.331974404751721
 33
0.0
  0
SOLID
  5
8761
  8
AM_BOR_GAWA
 62
     9
 10
-140.52195182240331
 20
16.80697140475171
 30
0.0
 11
-138.36195182240331
 21
16.086970204751719
 31
0.0
 12
-140.52195182240331
 22
16.32697320475172
 32
0.0
 13
-138.36195182240331
 23
15.60697140475172
 33
0.0
  0
SOLID
  5
8762
  8
AM_BOR_GAWA
 62
     9
 10
-142.68195182240331
 20
15.00697320475172
 30
0.0
 11
-138.36195182240331
 21
15.00697320475172
 31
0.0
 12
-142.68195182240331
 22
14.64697440475172
 32
0.0
 13
-138.36195182240331
 23
14.64697440475172
 33
0.0
  0
SOLID
  5
8763
  8
AM_BOR_GAWA
 62
     9
 10
-142.2740749158165
 20
13.73843580438008
 30
0.0
 11
-139.76195582240331
 21
13.80697500475172
 31
0.0
 12
-141.9575295186971
 22
13.206974404751721
 32
0.0
 13
-138.36195182240331
 23
13.206974404751721
 33
0.0
  0
ARC
  5
8764
  8
AM_BOR_GAWA
 62
     9
 10
-141.9575295186971
 20
13.56697440475172
 30
0.0
 40
0.1799999999999926
 50
0.0
 51
180.0
  0
ARC
  5
8765
  8
AM_BOR_GAWA
 62
     9
 10
-141.9575295186971
 20
13.56697440475172
 30
0.0
 40
0.1799999999999926
 50
180.0
 51
0.0
  0
ARC
  5
8766
  8
AM_BOR_GAWA
 62
     9
 10
-141.1354709067632
 20
13.92697500475172
 30
0.0
 40
0.4200000000000025
 50
151.55714823112459
 51
270.0
  0
LINE
  5
8767
  8
AM_BOR_GAWA
 62
     9
 10
-141.1457336040273
 20
14.78985899547407
 30
0.0
 11
-141.50477380103681
 21
14.127013431763009
 31
0.0
  0
SOLID
  5
8768
  8
AM_BOR_GAWA
 62
     9
 10
-141.7819518224033
 20
14.64697440475172
 30
0.0
 11
-140.88194582240331
 21
14.64697440475172
 31
0.0
 12
-142.2740749158165
 22
13.73843580438008
 32
0.0
 13
-141.2409860194129
 23
13.984128841040659
 33
0.0
  0
SOLID
  5
8769
  8
AM_BOR_GAWA
 62
     9
 10
-142.68195182240331
 20
16.086970204751719
 30
0.0
 11
-140.52195182240331
 21
16.80697140475171
 31
0.0
 12
-142.68195182240331
 22
15.60697140475172
 32
0.0
 13
-140.52195182240331
 23
16.32697320475172
 33
0.0
  0
SOLID
  5
876A
  8
AM_BOR_GAWA
 62
     9
 10
-144.18195782240329
 20
16.80697140475171
 30
0.0
 11
-143.46195182240331
 21
16.80697140475171
 31
0.0
 12
-144.18195782240329
 22
16.32697320475172
 32
0.0
 13
-143.46195182240331
 23
16.32697320475172
 33
0.0
  0
SOLID
  5
876B
  8
AM_BOR_GAWA
 62
     9
 10
-136.38194752851209
 20
15.18696704371613
 30
0.0
 11
-136.44194582240331
 21
14.526965796038329
 31
0.0
 12
-136.44194582240331
 22
15.12696900475172
 32
0.0
 13
-136.44194582240331
 23
15.12696900475172
 33
0.0
  0
SOLID
  5
876C
  8
AM_BOR_GAWA
 62
     9
 10
-137.04195182240329
 20
14.52696579603851
 30
0.0
 11
-136.44194582240331
 21
15.12696900475172
 31
0.0
 12
-137.04195182240329
 22
13.206974404751721
 32
0.0
 13
-136.44194582240331
 23
13.206974404751721
 33
0.0
  0
SOLID
  5
876D
  8
AM_BOR_GAWA
 62
     9
 10
-140.16195782240331
 20
14.286975004751721
 30
0.0
 11
-139.26195182240329
 21
14.286975004751721
 31
0.0
 12
-139.76195582240331
 22
13.80697500475172
 32
0.0
 13
-138.36195182240331
 23
13.206974404751721
 33
0.0
  0
LINE
  5
876E
  8
AM_BOR_GAWA
 62
     9
 10
-128.02147487893899
 20
11.630361612480231
 30
0.0
 11
-123.5990302900971
 21
11.630361612480231
 31
0.0
  0
SOLID
  5
876F
  8
AM_BOR_GAWA
 62
     9
 10
-134.88195182240329
 20
15.60697140475172
 30
0.0
 11
-134.28194582240329
 21
15.60697140475172
 31
0.0
 12
-134.88195182240329
 22
13.80697500475172
 32
0.0
 13
-134.28194582240329
 23
13.80697500475172
 33
0.0
  0
SOLID
  5
8770
  8
AM_BOR_GAWA
 62
     9
 10
-135.7219398224033
 20
13.80697500475172
 30
0.0
 11
-133.44194582240331
 21
13.80697500475172
 31
0.0
 12
-135.7219398224033
 22
13.206974404751721
 32
0.0
 13
-133.44194582240331
 23
13.206974404751721
 33
0.0
  0
SOLID
  5
8771
  8
AM_BOR_GAWA
 62
     9
 10
-135.48195182240329
 20
15.966970204751719
 30
0.0
 11
-133.68194582240329
 21
15.966970204751719
 31
0.0
 12
-135.48195182240329
 22
15.60697140475172
 32
0.0
 13
-133.68194582240329
 23
15.60697140475172
 33
0.0
  0
ARC
  5
8772
  8
AM_BOR_GAWA
 62
     9
 10
-135.96194582240329
 20
15.966970204751719
 30
0.0
 40
0.0600000000000023
 50
0.0
 51
180.0
  0
ARC
  5
8773
  8
AM_BOR_GAWA
 62
     9
 10
-135.96194582240329
 20
15.966970204751719
 30
0.0
 40
0.0600000000000023
 50
180.0
 51
0.0
  0
ARC
  5
8774
  8
AM_BOR_GAWA
 62
     9
 10
-135.96194582240329
 20
15.776672232233411
 30
0.0
 40
0.0600000000000023
 50
0.0
 51
180.0
  0
ARC
  5
8775
  8
AM_BOR_GAWA
 62
     9
 10
-135.96194582240329
 20
15.776672232233411
 30
0.0
 40
0.0600000000000023
 50
180.0
 51
0.0
  0
SOLID
  5
8776
  8
AM_BOR_GAWA
 62
     9
 10
-134.88195182240329
 20
16.80697560475172
 30
0.0
 11
-134.28194582240329
 21
16.80697560475172
 31
0.0
 12
-134.88195182240329
 22
15.966970204751719
 32
0.0
 13
-134.28194582240329
 23
15.966970204751719
 33
0.0
  0
CIRCLE
  5
8777
  8
AM_BOR_GAWA
 62
     9
 10
-125.8102525845181
 20
11.630361612480231
 30
0.0
 40
0.8960000036745867
  0
CIRCLE
  5
8778
  8
AM_BOR_GAWA
 62
     9
 10
-125.8102525845181
 20
11.630361612480231
 30
0.0
 40
1.8544881385706711
  0
LINE
  5
8779
  8
AM_BOR_GAWA
 62
     9
 10
-125.8102525845181
 20
9.4191393180592797
 30
0.0
 11
-125.8102525845181
 21
13.84158390690116
 31
0.0
  0
LINE
  5
877A
  8
AM_BOR_GAWA
 62
     9
 10
-120.8171699842127
 20
10.73436160880571
 30
0.0
 11
-120.8171699842127
 21
12.52636161615475
 31
0.0
  0
LINE
  5
877B
  8
AM_BOR_GAWA
 62
     9
 10
-114.0000001652655
 20
17.99999983473451
 30
0.0
 11
-114.0000001652655
 21
-0.0000001652654973
 31
0.0
  0
LINE
  5
877C
  8
AM_BOR_GAWA
 62
     9
 10
-54.000000165265511
 20
17.99999983473451
 30
0.0
 11
-54.000000165265511
 21
8.9999998347345151
 31
0.0
  0
TEXT
  5
877D
  8
AM_BOR_GAWA
 62
     9
 10
-113.0000001652655
 20
4.499999834734516
 30
0.0
 40
3.0
  1
品　番
  7
CMP-SET
  0
TEXT
  5
877E
  8
AM_BOR_GAWA
 62
     9
 10
-113.0000001652655
 20
1.499999834734516
 30
0.0
 40
2.0
  1
PROD NO.
  7
CMP-SET
  0
TEXT
  5
877F
  8
AM_BOR_GAWA
 62
     9
 10
-113.0000001652655
 20
13.49999983473451
 30
0.0
 40
3.0
  1
名　称
  7
CMP-SET
  0
TEXT
  5
8780
  8
AM_BOR_GAWA
 62
     9
 10
-113.0000001652655
 20
10.49999983473451
 30
0.0
 40
2.0
  1
TITLE
  7
CMP-SET
  0
LINE
  5
8781
  8
AM_BOR_GAWA
 62
     9
 10
-115.96674688677319
 20
9.7758734739095576
 30
0.0
 11
-115.96674688677319
 21
13.4848497510509
 31
0.0
  0
TEXT
  5
8782
  8
AM_BOR_GAWA
 62
     9
 10
-53.000000165265497
 20
10.49999983473451
 30
0.0
 40
2.0
  1
SYS.NO.
  7
CMP-SET
  0
TEXT
  5
8783
  8
AM_BOR_GAWA
 62
     9
 10
-53.000000165265497
 20
13.49999983473451
 30
0.0
 40
3.0
  1
系統名
  7
CMP-SET
  0
LINE
  5
8784
  8
AM_BOR_GAWA
 62
     9
 10
-184.00000016526539
 20
281.99999983473452
 30
0.0
 11
-184.00000016526539
 21
272.99999983473452
 31
0.0
  0
LINE
  5
8785
  8
AM_BOR_GAWA
 62
     9
 10
-184.00000016526539
 20
281.99999983473452
 30
0.0
 11
-0.000000165265476
 21
281.99999983473452
 31
0.0
  0
LINE
  5
8786
  8
AM_BOR_GAWA
 62
     9
 10
-0.000000165265476
 20
281.99999983473452
 30
0.0
 11
-0.000000165265476
 21
267.34559983473463
 31
0.0
  0
LINE
  5
8787
  8
AM_BOR_GAWA
 62
     9
 10
-184.00000016526539
 20
-0.0000001652654831
 30
0.0
 11
-0.000000165265476
 21
-0.0000001652654831
 31
0.0
  0
LINE
  5
8788
  8
AM_BOR_GAWA
 62
     9
 10
-0.0000001652655044
 20
17.999999834734531
 30
0.0
 11
-0.000000165265476
 21
-0.0000001652654831
 31
0.0
  0
ATTDEF
  5
8789
  8
AM_BOR_GAWA
 62
     4
 10
-136.73393267303939
 20
275.15953075548401
 30
0.0
 40
4.0
  1

  3
客先名称
  2
USER-NAME{15}
 70
     0
1001
AcDbAttr
1070
     0
1070
     1
  0
ATTDEF
  5
878A
  8
AM_BOR_GAWA
 62
     4
 10
-99.233932673039448
 20
11.159530755484001
 30
0.0
 40
4.0
  1

  3
名称
  2
NAME{10}
 70
     0
1001
AcDbAttr
1070
     0
1070
     1
  0
ATTDEF
  5
878B
  8
AM_BOR_GAWA
 62
     4
 10
-94.109089250434806
 20
2.4451715131637641
 30
0.0
 40
4.0
  1

  3
品番
  2
NUMBER{22}
 70
     0
1001
AcDbAttr
1070
     0
1070
     1
  0
ATTDEF
  5
878C
  8
AM_BOR_GAWA
 62
     4
 10
-41.233932673039448
 20
11.159530755484001
 30
0.0
 40
4.0
  1

  3
系統名
  2
SYS.NO.{10}
 70
     0
1001
AcDbAttr
1070
     0
1070
     1
  0
ATTDEF
  5
878D
  8
AM_BOR_GAWA
 62
     4
 10
-141.50000016526539
 20
1.814867023695107
 30
0.0
 40
3.0
  1

 72
     1
 11
-141.50000016526539
 21
3.3148670236951072
 31
0.0
  3
尺度
  2
GEN-TITLE-SCA{4}
 70
     0
 74
     2
1001
AcDbAttr
1070
     0
1070
     1
  0
ATTDEF
  5
878E
  8
AM_BOR_GAWA
 62
     4
 10
-133.4625881022252
 20
1.784401017632085
 30
0.0
 40
3.0
  1
'17.01.23
 72
     1
 11
-124.4625881022252
 21
3.284401017632085
 31
0.0
  3
作成年月日
  2
DATE{6}
 70
     0
 74
     2
1001
AcDbAttr
1070
     0
1070
     1
  0
ATTDEF
  5
8793
  8
AM_BOR_GAWA
 62
     4
 10
-153.94999014862319
 20
1.889361925602302
 30
0.0
 40
3.0
  1

 72
     1
 11
-153.94999014862319
 21
3.389361925602302
 31
0.0
  3
作成
  2
DRAW{3}
 70
     0
 74
     2
1001
AcDbAttr
1070
     0
1070
     1
  0
ATTDEF
  5
8794
  8
AM_BOR_GAWA
 62
     4
 10
-165.45778658759471
 20
1.8893619256023011
 30
0.0
 40
3.0
  1

 72
     1
 11
-165.45778658759471
 21
3.3893619256023011
 31
0.0
  3
検図
  2
CHECK{3}
 70
     0
 74
     2
1001
AcDbAttr
1070
     0
1070
     1
  0
ATTDEF
  5
8795
  8
AM_BOR_GAWA
 62
     4
 10
-177.69591440448639
 20
1.8893619256022971
 30
0.0
 40
3.0
  1

 72
     1
 11
-177.69591440448639
 21
3.3893619256022971
 31
0.0
  3
承認
  2
APPROVAL{3}
 70
     0
 74
     2
1001
AcDbAttr
1070
     0
1070
     1
  0
ATTDEF
  5
8796
  8
AM_BOR_GAWA
 62
     4
 10
-36.909206093294927
 20
275.95406001991557
 30
0.0
 40
3.0
  1

 72
     1
 11
-36.909206093294927
 21
277.45406001991557
 31
0.0
  3
CAD番号
  2
CADNO
 70
     0
 74
     2
1001
AcDbAttr
1070
     0
1070
     1
  0
LINE
  5
8797
  8
AM_BOR_GAWA
 62
     9
 10
-184.0000001652655
 20
17.999999834734531
 30
0.0
 11
-184.00000016526539
 21
-0.0000001652654831
 31
0.0
  0
ENDBLK
  5
879B
  8
0
  0
BLOCK
  8
0
  2
*D39
 70
     1
 10
0.0
 20
0.0
 30
0.0
  3
*D39
  1

  0
LINE
  5
9CF5
  8
AM_5_SCALE
 10
2222.42292348402
 20
3364.6778740979048
 30
0.0
 11
2222.42292348402
 21
3970.0390444676291
 31
0.0
  0
LINE
  5
9CF6
  8
AM_5_SCALE
 10
1002.422923484019
 20
3364.6778740979048
 30
0.0
 11
1002.422923484019
 21
3970.0390444676291
 31
0.0
  0
LINE
  5
9CF7
  8
AM_5_SCALE
 10
2192.42292348402
 20
3943.0390444676282
 30
0.0
 11
1032.4229234840191
 21
3943.0390444676282
 31
0.0
  0
INSERT
  5
9CF8
  8
AM_5_SCALE
  2
_OPEN30
 10
2222.42292348402
 20
3943.0390444676282
 30
0.0
 41
30.0
 42
30.0
 43
30.0
  0
INSERT
  5
9CF9
  8
AM_5_SCALE
  2
_OPEN30
 10
1002.422923484019
 20
3943.0390444676282
 30
0.0
 41
30.0
 42
30.0
 43
30.0
 50
180.0
  0
INSERT
  5
9CFA
  8
0
  2
*U59
 10
0.0
 20
0.0
 30
0.0
  0
POINT
  5
9CFB
  8
DEFPOINTS
 62
     0
 10
2222.42292348402
 20
3363.1778740979048
 30
0.0
  0
POINT
  5
9CFC
  8
DEFPOINTS
 62
     0
 10
1002.422923484019
 20
3363.1778740979048
 30
0.0
  0
POINT
  5
9CFD
  8
DEFPOINTS
 62
     0
 10
1002.422923484019
 20
3943.0390444676282
 30
0.0
  0
ENDBLK
  5
95CB
  8
0
  0
BLOCK
  8
0
  2
*D40
 70
     1
 10
0.0
 20
0.0
 30
0.0
  3
*D40
  1

  0
LINE
  5
9CFE
  8
AM_5_SCALE
 10
2163.42292348402
 20
3444.6778740979062
 30
0.0
 11
2163.42292348402
 21
3870.1778740979012
 31
0.0
  0
LINE
  5
9CFF
  8
AM_5_SCALE
 10
2222.42292348402
 20
3364.6778740979048
 30
0.0
 11
2222.42292348402
 21
3870.1778740979012
 31
0.0
  0
LINE
  5
9D00
  8
AM_5_SCALE
 10
2133.4229234840209
 20
3843.1778740979021
 30
0.0
 11
2103.42292348402
 21
3843.1778740979021
 31
0.0
  0
LINE
  5
9D01
  8
AM_5_SCALE
 10
2252.42292348402
 20
3843.1778740979021
 30
0.0
 11
2357.42292348402
 21
3843.1778740979021
 31
0.0
  0
LINE
  5
9D02
  8
AM_5_SCALE
 10
2163.42292348402
 20
3843.1778740979021
 30
0.0
 11
2222.42292348402
 21
3843.1778740979021
 31
0.0
  0
INSERT
  5
9D03
  8
AM_5_SCALE
  2
_OPEN30
 10
2163.42292348402
 20
3843.1778740979021
 30
0.0
 41
30.0
 42
30.0
 43
30.0
  0
INSERT
  5
9D04
  8
AM_5_SCALE
  2
_OPEN30
 10
2222.42292348402
 20
3843.1778740979021
 30
0.0
 41
30.0
 42
30.0
 43
30.0
 50
180.0
  0
INSERT
  5
9D05
  8
0
  2
*U60
 10
0.0
 20
0.0
 30
0.0
  0
POINT
  5
9D06
  8
DEFPOINTS
 62
     0
 10
2163.42292348402
 20
3443.1778740979048
 30
0.0
  0
POINT
  5
9D07
  8
DEFPOINTS
 62
     0
 10
2222.42292348402
 20
3363.1778740979048
 30
0.0
  0
POINT
  5
9D08
  8
DEFPOINTS
 62
     0
 10
2222.42292348402
 20
3843.1778740979021
 30
0.0
  0
ENDBLK
  5
9610
  8
0
  0
BLOCK
  8
0
  2
*D41
 70
     1
 10
0.0
 20
0.0
 30
0.0
  3
*D41
  1

  0
LINE
  5
9BE3
  8
AM_5_SCALE
 10
1061.4229234840179
 20
3444.6778740979062
 30
0.0
 11
1061.4229234840179
 21
3870.1778740979012
 31
0.0
  0
LINE
  5
9BE4
  8
AM_5_SCALE
 10
1002.422923484019
 20
3364.6778740979048
 30
0.0
 11
1002.422923484019
 21
3870.1778740979012
 31
0.0
  0
LINE
  5
9BE5
  8
AM_5_SCALE
 10
1091.4229234840179
 20
3843.1778740979021
 30
0.0
 11
1121.4229234840179
 21
3843.1778740979021
 31
0.0
  0
LINE
  5
9BE6
  8
AM_5_SCALE
 10
972.42292348401907
 20
3843.1778740979021
 30
0.0
 11
867.42292348401895
 21
3843.1778740979021
 31
0.0
  0
LINE
  5
9BE7
  8
AM_5_SCALE
 10
1061.4229234840179
 20
3843.1778740979021
 30
0.0
 11
1002.422923484019
 21
3843.1778740979021
 31
0.0
  0
INSERT
  5
9BE8
  8
AM_5_SCALE
  2
_OPEN30
 10
1061.4229234840179
 20
3843.1778740979021
 30
0.0
 41
30.0
 42
30.0
 43
30.0
 50
180.0
  0
INSERT
  5
9BE9
  8
AM_5_SCALE
  2
_OPEN30
 10
1002.422923484019
 20
3843.1778740979021
 30
0.0
 41
30.0
 42
30.0
 43
30.0
  0
INSERT
  5
9BEA
  8
0
  2
*U55
 10
0.0
 20
0.0
 30
0.0
  0
POINT
  5
9BEB
  8
DEFPOINTS
 62
     0
 10
1061.4229234840179
 20
3443.1778740979048
 30
0.0
  0
POINT
  5
9BEC
  8
DEFPOINTS
 62
     0
 10
1002.422923484019
 20
3363.1778740979048
 30
0.0
  0
POINT
  5
9BED
  8
DEFPOINTS
 62
     0
 10
1002.422923484019
 20
3843.1778740979021
 30
0.0
  0
ENDBLK
  5
9642
  8
0
  0
BLOCK
  8
0
  2
*D42
 70
     1
 10
0.0
 20
0.0
 30
0.0
  3
*D42
  1

  0
LINE
  5
9BEE
  8
AM_5_SCALE
 10
1057.92292348402
 20
2256.9294505970611
 30
0.0
 11
462.76547726734498
 21
2256.9294505970611
 31
0.0
  0
LINE
  5
9BEF
  8
AM_5_SCALE
 10
1000.922923484021
 20
2316.9294505970611
 30
0.0
 11
462.76547726734492
 21
2316.9294505970611
 31
0.0
  0
LINE
  5
9BF0
  8
AM_5_SCALE
 10
489.76547726734492
 20
2226.929450597062
 30
0.0
 11
489.76547726734492
 21
2196.929450597062
 31
0.0
  0
LINE
  5
9BF1
  8
AM_5_SCALE
 10
489.76547726734492
 20
2346.9294505970611
 30
0.0
 11
489.76547726734492
 21
2376.9294505970611
 31
0.0
  0
INSERT
  5
9BF2
  8
0
  2
*U56
 10
0.0
 20
0.0
 30
0.0
  0
LINE
  5
9BF3
  8
AM_5_SCALE
 10
489.76547726734492
 20
2256.9294505970611
 30
0.0
 11
489.76547726734492
 21
2316.9294505970611
 31
0.0
  0
INSERT
  5
9BF4
  8
AM_5_SCALE
  2
_OPEN30
 10
489.76547726734492
 20
2256.9294505970611
 30
0.0
 41
30.0
 42
30.0
 43
30.0
 50
90.0
  0
INSERT
  5
9BF5
  8
AM_5_SCALE
  2
_OPEN30
 10
489.76547726734492
 20
2316.9294505970611
 30
0.0
 41
30.0
 42
30.0
 43
30.0
 50
270.0
  0
POINT
  5
9BF6
  8
DEFPOINTS
 62
     0
 10
1059.42292348402
 20
2256.9294505970611
 30
0.0
  0
POINT
  5
9BF7
  8
DEFPOINTS
 62
     0
 10
1002.422923484021
 20
2316.9294505970611
 30
0.0
  0
POINT
  5
9BF8
  8
DEFPOINTS
 62
     0
 10
489.76547726734492
 20
2316.9294505970611
 30
0.0
  0
ENDBLK
  5
98FC
  8
0
  0
BLOCK
  8
0
  2
*U43
 70
     1
 10
0.0
 20
0.0
 30
0.0
  3
*U43
  1

  0
TEXT
  5
A0A2
  8
HOJYO
 10
3284.8607686524078
 20
3006.6562679187482
 30
0.0
 40
45.0
  1
765
 50
90.0
  0
ENDBLK
  5
A0A4
  8
0
  0
BLOCK
  8
0
  2
*U44
 70
     1
 10
0.0
 20
0.0
 30
0.0
  3
*U44
  1

  0
TEXT
  5
A0A6
  8
HOJYO
 10
4401.9243716038254
 20
3771.6562679187482
 30
0.0
 40
45.0
  1
1690
  0
ENDBLK
  5
A0A8
  8
0
  0
BLOCK
  8
0
  2
*U45
 70
     1
 10
0.0
 20
0.0
 30
0.0
  3
*U45
  1

  0
TEXT
  5
A0AA
  8
HOJYO
 10
3500.6743716038259
 20
2370.989681724217
 30
0.0
 40
45.0
  1
50
  0
ENDBLK
  5
A0AC
  8
0
  0
BLOCK
  8
0
  2
*U46
 70
     1
 10
0.0
 20
0.0
 30
0.0
  3
*U46
  1

  0
TEXT
  5
A0AE
  8
HOJYO
 10
4421.9243716038263
 20
2370.989681724217
 30
0.0
 40
45.0
  1
1630
  0
ENDBLK
  5
A0B0
  8
0
  0
BLOCK
  8
0
  2
*U47
 70
     1
 10
0.0
 20
0.0
 30
0.0
  3
*U47
  1

  0
TEXT
  5
A0B2
  8
HOJYO
 10
5378.1743716038263
 20
2370.989681724217
 30
0.0
 40
45.0
  1
10
  0
ENDBLK
  5
A0B4
  8
0
  0
BLOCK
  8
0
  2
*U48
 70
     1
 10
0.0
 20
0.0
 30
0.0
  3
*U48
  1

  0
TEXT
  5
A0B6
  8
HOJYO
 10
5597.9996821247332
 20
3509.1562679187482
 30
0.0
 40
45.0
  1
10
 50
90.0
  0
ENDBLK
  5
A0B8
  8
0
  0
BLOCK
  8
0
  2
*U49
 70
     1
 10
0.0
 20
0.0
 30
0.0
  3
*U49
  1

  0
TEXT
  5
A0BA
  8
HOJYO
 10
5597.9996821247332
 20
3006.6562679187482
 30
0.0
 40
45.0
  1
745
 50
90.0
  0
ENDBLK
  5
A0BC
  8
0
  0
BLOCK
  8
0
  2
*U50
 70
     1
 10
0.0
 20
0.0
 30
0.0
  3
*U50
  1

  0
TEXT
  5
A0BE
  8
HOJYO
 10
5597.9996821247332
 20
2571.6562679187482
 30
0.0
 40
45.0
  1
10
 50
90.0
  0
ENDBLK
  5
A0C0
  8
0
  0
BLOCK
  8
0
  2
*U51
 70
     1
 10
0.0
 20
0.0
 30
0.0
  3
*U51
  1

  0
TEXT
  5
A0C2
  8
SCALE
 10
683.6773883677514
 20
3523.1778740979062
 30
0.0
 40
45.0
  1
20
 50
90.0
  0
ENDBLK
  5
A0C4
  8
0
  0
BLOCK
  8
0
  2
*U52
 70
     1
 10
0.0
 20
0.0
 30
0.0
  3
*U52
  1

  0
TEXT
  5
A0C6
  8
SCALE
 10
683.67738836775152
 20
2614.6778740979048
 30
0.0
 40
45.0
  1
20
 50
90.0
  0
ENDBLK
  5
A0C8
  8
0
  0
BLOCK
  8
0
  2
*U53
 70
     1
 10
0.0
 20
0.0
 30
0.0
  3
*U53
  1

  0
TEXT
  5
A0CA
  8
SCALE
 10
683.67738836775163
 20
3050.1778740979048
 30
0.0
 40
45.0
  1
681
 50
90.0
  0
ENDBLK
  5
A0CC
  8
0
  0
BLOCK
  8
0
  2
*U54
 70
     1
 10
0.0
 20
0.0
 30
0.0
  3
*U54
  1

  0
TEXT
  5
A0CE
  8
AM_5_SCALE
 62
     4
 10
934.59594395618376
 20
3767.8915921094008
 30
0.0
 40
45.0
  1
21
  0
ENDBLK
  5
A0D0
  8
0
  0
BLOCK
  8
0
  2
*U55
 70
     1
 10
0.0
 20
0.0
 30
0.0
  3
*U55
  1

  0
TEXT
  5
A0D2
  8
AM_5_SCALE
 10
867.42292348401895
 20
3865.6778740979012
 30
0.0
 40
45.0
  1
59
  0
ENDBLK
  5
A0D4
  8
0
  0
BLOCK
  8
0
  2
*U56
 70
     1
 10
0.0
 20
0.0
 30
0.0
  3
*U56
  1

  0
TEXT
  5
A0D6
  8
AM_5_SCALE
 10
462.76547726734452
 20
2223.1794505970611
 30
0.0
 40
45.0
  1
(60)
 50
90.0
  0
ENDBLK
  5
A0D8
  8
0
  0
BLOCK
  8
0
  2
*U57
 70
     1
 10
0.0
 20
0.0
 30
0.0
  3
*U57
  1

  0
TEXT
  5
A0DA
  8
SCALE
 10
1544.92292348402
 20
3755.6778740979048
 30
0.0
 40
45.0
  1
1060
  0
ENDBLK
  5
A0DC
  8
0
  0
BLOCK
  8
0
  2
*U58
 70
     1
 10
0.0
 20
0.0
 30
0.0
  3
*U58
  1

  0
TEXT
  5
A0DE
  8
SCALE
 10
1274.92292348402
 20
2960.4793202834362
 30
0.0
 40
48.0
  1
550
  0
ENDBLK
  5
A0E0
  8
0
  0
BLOCK
  8
0
  2
*U59
 70
     1
 10
0.0
 20
0.0
 30
0.0
  3
*U59
  1

  0
TEXT
  5
A0E2
  8
AM_5_SCALE
 10
1541.1729234840191
 20
3965.5390444676291
 30
0.0
 40
45.0
  1
1220
  0
ENDBLK
  5
A0E4
  8
0
  0
BLOCK
  8
0
  2
*U60
 70
     1
 10
0.0
 20
0.0
 30
0.0
  3
*U60
  1

  0
TEXT
  5
A0E6
  8
AM_5_SCALE
 10
2282.42292348402
 20
3865.6778740979012
 30
0.0
 40
45.0
  1
59
  0
ENDBLK
  5
A0E8
  8
0
  0
BLOCK
  8
0
  2
*U61
 70
     1
 10
0.0
 20
0.0
 30
0.0
  3
*U61
  1

  0
TEXT
  5
A0EA
  8
AM_5_SCALE
 62
     4
 10
2443.0439043165939
 20
2661.3892504881342
 30
0.0
 40
45.0
  1
80
 50
90.0
  0
ENDBLK
  5
A0EC
  8
0
  0
BLOCK
  8
0
  2
*U62
 70
     1
 10
0.0
 20
0.0
 30
0.0
  3
*U62
  1

  0
TEXT
  5
A0EE
  8
AM_5_SCALE
 10
1541.17292348402
 20
3865.677874097903
 30
0.0
 40
45.0
  1
1102
  0
ENDBLK
  5
A0F0
  8
0
  0
BLOCK
  8
0
  2
*U63
 70
     1
 10
0.0
 20
0.0
 30
0.0
  3
*U63
  1

  0
TEXT
  5
A0F2
  8
AM_5_SCALE
 62
     4
 10
2230.2499030118561
 20
3767.8915921094008
 30
0.0
 40
45.0
  1
21
  0
ENDBLK
  5
A0F4
  8
0
  0
BLOCK
  8
0
  2
*U64
 70
     1
 10
0.0
 20
0.0
 30
0.0
  3
*U64
  1

  0
TEXT
  5
A0F6
  8
AM_5_SCALE
 62
     4
 10
2460.7661418236671
 20
3050.1778740979048
 30
0.0
 40
45.0
  1
561
 50
90.0
  0
ENDBLK
  5
A0F8
  8
0
  0
BLOCK
  8
0
  2
*U65
 70
     1
 10
0.0
 20
0.0
 30
0.0
  3
*U65
  1

  0
TEXT
  5
A0FA
  8
AM_5_SCALE
 62
     4
 10
595.11573650027844
 20
2106.9294505970611
 30
0.0
 40
45.0
  1
30
 50
90.0
  0
ENDBLK
  5
A0FC
  8
0
  0
BLOCK
  8
0
  2
*U66
 70
     1
 10
0.0
 20
0.0
 30
0.0
  3
*U66
  1

  0
TEXT
  5
A0FE
  8
AM_5_SCALE
 62
     4
 10
2462.064331879857
 20
3476.4664977076759
 30
0.0
 40
45.0
  1
80
 50
90.0
  0
ENDBLK
  5
A100
  8
0
  0
BLOCK
  8
0
  2
*U67
 70
     1
 10
0.0
 20
0.0
 30
0.0
  3
*U67
  1

  0
TEXT
  5
A105
  8
SCALE
 10
583.67738836775163
 20
3050.1778740979048
 30
0.0
 40
45.0
  1
721
 50
90.0
  0
ENDBLK
  5
A107
  8
0
  0
BLOCK
  8
0
  2
*U68
 70
     1
 10
0.0
 20
0.0
 30
0.0
  3
*U68
  1

  0
TEXT
  5
A109
  8
0
 62
     0
 10
462.76547726734452
 20
2223.1794505970611
 30
0.0
 40
45.0
  1
(60)
 50
90.0
  0
ENDBLK
  5
A10B
  8
0
  0
BLOCK
  8
0
  2
*U69
 70
     1
 10
0.0
 20
0.0
 30
0.0
  3
*U69
  1

  0
TEXT
  5
A10D
  8
0
 62
     0
 10
1541.1729234840191
 20
3965.5390444676291
 30
0.0
 40
45.0
  1
1220
  0
ENDBLK
  5
A10F
  8
0
  0
BLOCK
  8
0
  2
*U70
 70
     1
 10
0.0
 20
0.0
 30
0.0
  3
*U70
  1

  0
TEXT
  5
A116
  8
0
 62
     0
 10
595.11573650027844
 20
2106.9294505970611
 30
0.0
 40
45.0
  1
30
 50
90.0
  0
ENDBLK
  5
A118
  8
0
  0
BLOCK
  8
0
  2
*U71
 70
     1
 10
0.0
 20
0.0
 30
0.0
  3
*U71
  1

  0
TEXT
  5
A11D
  8
0
 62
     0
 10
583.67738836775163
 20
3050.1778740979048
 30
0.0
 40
45.0
  1
721
 50
90.0
  0
ENDBLK
  5
A11F
  8
0
  0
ENDSEC
  0
SECTION
  2
ENTITIES
  0
TEXT
  5
190B
  8
SCALE
 10
417.56873500961041
 20
1124.994511993892
 30
0.0
 40
44.999954999999993
  1

  0
LINE
  5
2F89
  8
0
 62
     0
 10
2119.6502238294429
 20
2742.1778740979048
 30
0.0
 11
1081.42292348402
 21
2742.1778740979048
 31
0.0
  0
LINE
  5
2F8A
  8
0
 62
     0
 10
1081.42292348402
 20
2742.1778740979048
 30
0.0
 11
2119.6502238294429
 21
2742.1778740979048
 31
0.0
  0
LINE
  5
2F8B
  8
0
 62
     0
 10
1081.42292348402
 20
2742.1778740979048
 30
0.0
 11
2143.42292348402
 21
2742.1778740979048
 31
0.0
  0
LINE
  5
2F8D
  8
0
 62
     0
 10
1081.42292348402
 20
3463.1778740979048
 30
0.0
 11
2143.42292348402
 21
3463.1778740979048
 31
0.0
  0
TEXT
  5
2F96
  8
SCALE
 10
711.40999151373421
 20
2902.8810643879751
 30
0.0
 40
50.0
  1

 50
90.0
  0
LINE
  5
333A
  8
0
 62
     0
 10
1148.932704401135
 20
3637.4590161670149
 30
0.0
 11
1829.756229092847
 21
3637.4590161670149
 31
0.0
  0
TEXT
  5
333C
  8
0
 62
     0
 10
1167.3343320625349
 20
3647.4673561160621
 30
0.0
 40
44.999954999999993
  1
4-%%C20＜機器取付用穴＞
  0
LINE
  5
553A
  8
0
 62
     0
 10
1584.8155590574199
 20
3102.6778740979048
 30
0.0
 11
1634.92292348402
 21
3102.6778740979048
 31
0.0
  0
LINE
  5
553B
  8
0
 62
     0
 10
1609.92292348402
 20
3077.6778740979062
 30
0.0
 11
1609.92292348402
 21
3127.6778740979048
 31
0.0
  0
CIRCLE
  5
553C
  8
0
 62
     0
 10
1609.92292348402
 20
3102.6778740979048
 30
0.0
 40
8.0
  0
LINE
  5
55D7
  8
0
 62
     0
 10
1612.42292348402
 20
2230.5937139116782
 30
0.0
 11
1612.42292348402
 21
2265.8177012117972
 31
0.0
  0
LINE
  5
567A
  8
0
 62
     0
 10
1598.92292348402
 20
2237.9294505970611
 30
0.0
 11
1625.92292348402
 21
2237.9294505970611
 31
0.0
  0
LINE
  5
567B
  8
0
 62
     0
 10
1598.92292348402
 20
2256.9294505970611
 30
0.0
 11
1598.92292348402
 21
2237.9294505970611
 31
0.0
  0
LINE
  5
567C
  8
0
 62
     0
 10
1625.92292348402
 20
2256.9294505970611
 30
0.0
 11
1625.92292348402
 21
2237.9294505970611
 31
0.0
  0
LINE
  5
6835
  8
0
 62
     0
 10
1066.154198662108
 20
3443.1778740979039
 30
0.0
 11
1102.691648305931
 21
3443.1778740979039
 31
0.0
  0
LINE
  5
6836
  8
0
 62
     0
 10
1082.42292348402
 20
3423.7312746318962
 30
0.0
 11
1082.42292348402
 21
3462.624473563912
 31
0.0
  0
CIRCLE
  5
6837
  8
0
 62
     0
 10
1082.42292348402
 20
3443.1778740979039
 30
0.0
 40
7.0
  0
LINE
  5
6838
  8
0
 62
     0
 10
1066.154198662108
 20
2762.1778740979039
 30
0.0
 11
1102.691648305931
 21
2762.1778740979039
 31
0.0
  0
LINE
  5
6839
  8
0
 62
     0
 10
1082.42292348402
 20
2742.7312746318962
 30
0.0
 11
1082.42292348402
 21
2781.624473563912
 31
0.0
  0
CIRCLE
  5
683A
  8
0
 62
     0
 10
1082.42292348402
 20
2762.1778740979039
 30
0.0
 40
7.0
  0
LINE
  5
6859
  8
0
 62
     0
 10
2122.1541986621078
 20
3443.1778740979039
 30
0.0
 11
2156.6916483059308
 21
3443.1778740979039
 31
0.0
  0
LINE
  5
685A
  8
0
 62
     0
 10
2142.4229234840191
 20
3423.7312746318962
 30
0.0
 11
2142.4229234840191
 21
3462.624473563912
 31
0.0
  0
CIRCLE
  5
685B
  8
0
 62
     0
 10
2142.4229234840191
 20
3443.1778740979039
 30
0.0
 40
7.0
  0
LINE
  5
685C
  8
0
 62
     0
 10
2122.1541986621078
 20
2762.1778740979039
 30
0.0
 11
2156.6916483059308
 21
2762.1778740979039
 31
0.0
  0
LINE
  5
685D
  8
0
 62
     0
 10
2142.4229234840191
 20
2742.7312746318962
 30
0.0
 11
2142.4229234840191
 21
2781.624473563912
 31
0.0
  0
CIRCLE
  5
685E
  8
0
 62
     0
 10
2142.4229234840191
 20
2762.1778740979039
 30
0.0
 40
7.0
  0
LINE
  5
6BFE
  8
0
 62
     0
 10
2163.42292348402
 20
3443.1778740979048
 30
0.0
 11
2163.42292348402
 21
2762.1778740979048
 31
0.0
  0
LINE
  5
6C00
  8
0
 62
     0
 10
1061.42292348402
 20
2762.1778740979048
 30
0.0
 11
1061.42292348402
 21
3443.1778740979048
 31
0.0
  0
LINE
  5
71F8
  8
0
 62
     0
 10
1022.422923484019
 20
3383.1778740979048
 30
0.0
 11
2202.42292348402
 21
3383.1778740979048
 31
0.0
  0
LINE
  5
71F9
  8
0
 62
     0
 10
2202.42292348402
 20
2822.1778740979048
 30
0.0
 11
1022.422923484019
 21
2822.177874097903
 31
0.0
  0
LINE
  5
72FE
  8
0
 62
     0
 10
1059.42292348402
 20
2286.9294505970611
 30
0.0
 11
2163.42292348402
 21
2286.9294505970611
 31
0.0
  0
LINE
  5
72FF
  8
0
 62
     0
 10
1061.42292348402
 20
2286.9294505970611
 30
0.0
 11
1061.42292348402
 21
2256.9294505970611
 31
0.0
  0
LINE
  5
7301
  8
0
 62
     0
 10
1059.42292348402
 20
2285.7027006657572
 30
0.0
 11
1059.42292348402
 21
2256.9294505970611
 31
0.0
  0
LINE
  5
7306
  8
0
 62
     0
 10
2163.42292348402
 20
2286.9294505970611
 30
0.0
 11
2163.42292348402
 21
2256.9294505970611
 31
0.0
  0
LINE
  5
7308
  8
0
 62
     0
 10
2165.42292348402
 20
2285.7027006657572
 30
0.0
 11
2165.42292348402
 21
2256.9294505970611
 31
0.0
  0
LINE
  5
7317
  8
0
 62
     0
 10
1061.42292348402
 20
2284.9294505970611
 30
0.0
 11
2163.42292348402
 21
2284.9294505970611
 31
0.0
  0
LINE
  5
7318
  8
0
 62
     0
 10
1059.42292348402
 20
2256.9294505970611
 30
0.0
 11
2165.4229234840191
 21
2256.9294505970611
 31
0.0
  0
LINE
  5
7319
  8
0
 62
     0
 10
1082.42292348402
 20
2270.1485473478851
 30
0.0
 11
1082.42292348402
 21
2309.041746279901
 31
0.0
  0
LINE
  5
731A
  8
0
 62
     0
 10
2142.4229234840191
 20
2270.1485473478851
 30
0.0
 11
2142.4229234840191
 21
2309.041746279901
 31
0.0
  0
LINE
  5
73E5
  8
0
 62
     0
 10
1598.92292348402
 20
2256.9294505970611
 30
0.0
 11
1625.92292348402
 21
2256.9294505970611
 31
0.0
  0
ARC
  5
8982
  8
0
 62
     0
 10
2143.42292348402
 20
3443.1778740979048
 30
0.0
 40
20.0
 50
0.0
 51
90.0
1001
GENIUS_GENODEF_13
1002
{
1000
HIER
1070
     0
1002
}
1002
{
1000
MANEDIT
1070
     0
1002
}
1002
{
1000
NOSEL
1070
     0
1002
}
1002
{
1000
BEHIND
1070
     0
1002
}
1002
{
1000
OTHER
1070
     0
1002
}
1002
{
1000
REACTOR
1002
}
1001
GENIUS_GENOBJ-N-FIL_13
1002
{
1000
OWNER
1000
GEN
1002
}
  0
ARC
  5
8983
  8
0
 62
     0
 10
1081.42292348402
 20
3443.1778740979048
 30
0.0
 40
20.0
 50
90.0
 51
180.0
1001
GENIUS_GENODEF_13
1002
{
1000
HIER
1070
     0
1002
}
1002
{
1000
MANEDIT
1070
     0
1002
}
1002
{
1000
NOSEL
1070
     0
1002
}
1002
{
1000
BEHIND
1070
     0
1002
}
1002
{
1000
OTHER
1070
     0
1002
}
1002
{
1000
REACTOR
1002
}
1001
GENIUS_GENOBJ-N-FIL_13
1002
{
1000
OWNER
1000
GEN
1002
}
  0
ARC
  5
8984
  8
0
 62
     0
 10
1081.42292348402
 20
2762.1778740979048
 30
0.0
 40
20.0
 50
180.0
 51
270.00000000000011
1001
GENIUS_GENOBJ-N-FIL_13
1002
{
1000
OWNER
1000
GEN
1002
}
1001
GENIUS_GENODEF_13
1002
{
1000
HIER
1070
     0
1002
}
1002
{
1000
MANEDIT
1070
     0
1002
}
1002
{
1000
NOSEL
1070
     0
1002
}
1002
{
1000
BEHIND
1070
     0
1002
}
1002
{
1000
OTHER
1070
     0
1002
}
1002
{
1000
REACTOR
1002
}
  0
ARC
  5
8992
  8
0
 62
     0
 10
2143.42292348402
 20
2762.1778740979048
 30
0.0
 40
20.0
 50
270.0
 51
0.0
1001
GENIUS_GENOBJ-N-FIL_13
1002
{
1000
OWNER
1000
GEN
1002
}
1001
GENIUS_GENODEF_13
1002
{
1000
HIER
1070
     0
1002
}
1002
{
1000
MANEDIT
1070
     0
1002
}
1002
{
1000
NOSEL
1070
     0
1002
}
1002
{
1000
BEHIND
1070
     0
1002
}
1002
{
1000
OTHER
1070
     0
1002
}
1002
{
1000
REACTOR
1002
}
  0
ARC
  5
9219
  8
0
 62
     0
 10
1022.422923484019
 20
3363.1778740979048
 30
0.0
 40
20.0
 50
90.0
 51
180.0
1001
GENIUS_GENOBJ-N-FIL_13
1002
{
1000
OWNER
1000
GEN
1002
}
1001
GENIUS_GENODEF_13
1002
{
1000
HIER
1070
     0
1002
}
1002
{
1000
MANEDIT
1070
     0
1002
}
1002
{
1000
NOSEL
1070
     0
1002
}
1002
{
1000
BEHIND
1070
     0
1002
}
1002
{
1000
OTHER
1070
     0
1002
}
1002
{
1000
REACTOR
1002
}
  0
ARC
  5
921A
  8
0
 62
     0
 10
1022.422923484019
 20
2842.177874097903
 30
0.0
 40
20.0
 50
180.0
 51
270.0
1001
GENIUS_GENODEF_13
1002
{
1000
HIER
1070
     0
1002
}
1002
{
1000
MANEDIT
1070
     0
1002
}
1002
{
1000
NOSEL
1070
     0
1002
}
1002
{
1000
BEHIND
1070
     0
1002
}
1002
{
1000
OTHER
1070
     0
1002
}
1002
{
1000
REACTOR
1002
}
1001
GENIUS_GENOBJ-N-FIL_13
1002
{
1000
OWNER
1000
GEN
1002
}
  0
ARC
  5
921B
  8
0
 62
     0
 10
2202.42292348402
 20
2842.1778740979039
 30
0.0
 40
20.0
 50
270.0
 51
0.0
1001
GENIUS_GENOBJ-N-FIL_13
1002
{
1000
OWNER
1000
GEN
1002
}
1001
GENIUS_GENODEF_13
1002
{
1000
HIER
1070
     0
1002
}
1002
{
1000
MANEDIT
1070
     0
1002
}
1002
{
1000
NOSEL
1070
     0
1002
}
1002
{
1000
BEHIND
1070
     0
1002
}
1002
{
1000
OTHER
1070
     0
1002
}
1002
{
1000
REACTOR
1002
}
  0
LINE
  5
921C
  8
0
 62
     0
 10
2222.42292348402
 20
3363.1778740979048
 30
0.0
 11
2222.42292348402
 21
2842.1778740979039
 31
0.0
  0
ARC
  5
921D
  8
0
 62
     0
 10
2202.42292348402
 20
3363.1778740979048
 30
0.0
 40
20.0
 50
0.0
 51
90.0
1001
GENIUS_GENOBJ-N-FIL_13
1002
{
1000
OWNER
1000
GEN
1002
}
1001
GENIUS_GENODEF_13
1002
{
1000
HIER
1070
     0
1002
}
1002
{
1000
MANEDIT
1070
     0
1002
}
1002
{
1000
NOSEL
1070
     0
1002
}
1002
{
1000
BEHIND
1070
     0
1002
}
1002
{
1000
OTHER
1070
     0
1002
}
1002
{
1000
REACTOR
1002
}
  0
LINE
  5
921E
  8
0
 62
     0
 10
1002.422923484019
 20
3363.1778740979048
 30
0.0
 11
1002.422923484019
 21
2842.177874097903
 31
0.0
  0
LINE
  5
94B7
  8
0
 62
     0
 10
2222.42292348402
 20
2316.9294505970611
 30
0.0
 11
2222.42292348402
 21
2314.6857515132151
 31
0.0
  0
LINE
  5
94B8
  8
0
 62
     0
 10
2163.42292348402
 20
2286.9294505970611
 30
0.0
 11
2222.42292348402
 21
2316.9294505970611
 31
0.0
  0
LINE
  5
94B9
  8
0
 62
     0
 10
2165.42292348402
 20
2285.7027006657572
 30
0.0
 11
2222.42292348402
 21
2314.6857515132151
 31
0.0
  0
LINE
  5
94BA
  8
0
 62
     0
 10
1002.422923484021
 20
2316.9294505970611
 30
0.0
 11
1002.422923484021
 21
2314.6857515132151
 31
0.0
  0
LINE
  5
94BB
  8
0
 62
     0
 10
1061.4229234840211
 20
2286.9294505970611
 30
0.0
 11
1002.422923484021
 21
2316.9294505970611
 31
0.0
  0
LINE
  5
94BC
  8
0
 62
     0
 10
1059.4229234840211
 20
2285.7027006657572
 30
0.0
 11
1002.422923484021
 21
2314.6857515132151
 31
0.0
  0
LINE
  5
9EDD
  8
0
 62
     0
 10
1057.92292348402
 20
2256.9294505970611
 30
0.0
 11
462.76547726734498
 21
2256.9294505970611
 31
0.0
  0
LINE
  5
9EDE
  8
0
 62
     0
 10
1000.922923484021
 20
2316.9294505970611
 30
0.0
 11
462.76547726734492
 21
2316.9294505970611
 31
0.0
  0
LINE
  5
9EDF
  8
0
 62
     0
 10
489.76547726734492
 20
2226.929450597062
 30
0.0
 11
489.76547726734492
 21
2196.929450597062
 31
0.0
  0
LINE
  5
9EE0
  8
0
 62
     0
 10
489.76547726734492
 20
2346.9294505970611
 30
0.0
 11
489.76547726734492
 21
2376.9294505970611
 31
0.0
  0
INSERT
  5
9EE1
  8
0
  2
*U68
 10
0.0
 20
0.0
 30
0.0
  0
LINE
  5
9EE2
  8
0
 62
     0
 10
489.76547726734492
 20
2256.9294505970611
 30
0.0
 11
489.76547726734492
 21
2316.9294505970611
 31
0.0
  0
INSERT
  5
9EE3
  8
0
 62
     0
  2
_OPEN30
 10
489.76547726734492
 20
2256.9294505970611
 30
0.0
 41
30.0
 42
30.0
 43
30.0
 50
90.0
  0
INSERT
  5
9EE4
  8
0
 62
     0
  2
_OPEN30
 10
489.76547726734492
 20
2316.9294505970611
 30
0.0
 41
30.0
 42
30.0
 43
30.0
 50
270.0
  0
LINE
  5
9EE5
  8
0
 62
     0
 10
2222.42292348402
 20
3364.6778740979048
 30
0.0
 11
2222.42292348402
 21
3970.0390444676291
 31
0.0
  0
LINE
  5
9EE6
  8
0
 62
     0
 10
1002.422923484019
 20
3364.6778740979048
 30
0.0
 11
1002.422923484019
 21
3970.0390444676291
 31
0.0
  0
LINE
  5
9EE7
  8
0
 62
     0
 10
2192.42292348402
 20
3943.0390444676282
 30
0.0
 11
1032.4229234840191
 21
3943.0390444676282
 31
0.0
  0
INSERT
  5
9EE8
  8
0
 62
     0
  2
_OPEN30
 10
2222.42292348402
 20
3943.0390444676282
 30
0.0
 41
30.0
 42
30.0
 43
30.0
  0
INSERT
  5
9EE9
  8
0
 62
     0
  2
_OPEN30
 10
1002.422923484019
 20
3943.0390444676282
 30
0.0
 41
30.0
 42
30.0
 43
30.0
 50
180.0
  0
INSERT
  5
9EEA
  8
0
  2
*U69
 10
0.0
 20
0.0
 30
0.0
  0
ATTDEF
  5
9EED
  8
0
 62
     0
 10
1496.4910059881861
 20
288.89295862535113
 30
0.0
 40
60.0
  1

  3
名称
  2
ドレンパン
 70
     0
1001
AcDbAttr
1070
     0
1070
     1
  0
ATTDEF
  5
9EEE
  8
0
 62
     0
 10
1573.3636573272561
 20
158.1775699905474
 30
0.0
 40
60.0
  1

  3
品番
  2
DP-335D
 70
     0
1001
AcDbAttr
1070
     0
1070
     1
  0
LINE
  5
9FFD
  8
0
 62
     0
 10
224.99999360479569
 20
4351.4999948141076
 30
0.0
 11
224.99999360479569
 21
4216.4999948141094
 31
0.0
  0
LINE
  5
9FFE
  8
0
 62
     0
 10
224.99999360479569
 20
4351.4999948141076
 30
0.0
 11
2984.9999936047961
 21
4351.4999948141076
 31
0.0
  0
LINE
  5
A000
  8
0
 62
     0
 10
224.99999360479569
 20
121.4999948141087
 30
0.0
 11
2984.9999936047961
 21
121.4999948141087
 31
0.0
  0
LINE
  5
A001
  8
0
 62
     0
 10
2984.9999936047948
 20
391.4999948141089
 30
0.0
 11
2984.9999936047961
 21
121.4999948141087
 31
0.0
  0
LINE
  5
A004
  8
0
 62
     0
 10
224.99999608377809
 20
4351.4999972930909
 30
0.0
 11
2984.9999960837799
 21
4351.4999972930909
 31
0.0
  0
LINE
  5
A005
  8
0
 62
     0
 10
224.99999608377809
 20
4351.4999972930909
 30
0.0
 11
224.99999608377809
 21
121.4999972930909
 31
0.0
  0
LINE
  5
A006
  8
0
 62
     0
 10
2984.9999960837799
 20
4351.4999972930909
 30
0.0
 11
2984.999996083779
 21
121.4999972930903
 31
0.0
  0
LINE
  5
A007
  8
0
 62
     0
 10
224.99999608377809
 20
121.4999972930909
 30
0.0
 11
2984.999996083779
 21
121.4999972930903
 31
0.0
  0
POLYLINE
  5
A008
  8
DEFPOINTS
 66
     1
 10
0.0
 20
0.0
 30
0.0
 70
     1
  0
VERTEX
  5
A110
  8
DEFPOINTS
 10
0.0
 20
0.0
 30
0.0
  0
VERTEX
  5
A111
  8
DEFPOINTS
 10
3150.0
 20
0.0
 30
0.0
  0
VERTEX
  5
A112
  8
DEFPOINTS
 10
3150.0
 20
4455.0
 30
0.0
  0
VERTEX
  5
A113
  8
DEFPOINTS
 10
0.0
 20
4455.0
 30
0.0
  0
SEQEND
  5
A114
  8
DEFPOINTS
  0
LINE
  5
A009
  8
0
 62
     0
 10
1120.8045520454921
 20
2286.9294505970611
 30
0.0
 11
590.61573650027879
 21
2286.929450597062
 31
0.0
  0
LINE
  5
A00A
  8
0
 62
     0
 10
1072.596940725713
 20
2256.9294505970611
 30
0.0
 11
590.61573650027879
 21
2256.9294505970611
 31
0.0
  0
LINE
  5
A00B
  8
0
 62
     0
 10
617.61573650027879
 20
2316.9294505970611
 30
0.0
 11
617.61573650027879
 21
2346.929450597062
 31
0.0
  0
LINE
  5
A00C
  8
0
 62
     0
 10
617.61573650027867
 20
2226.929450597062
 30
0.0
 11
617.61573650027867
 21
2084.4294505970611
 31
0.0
  0
LINE
  5
A00D
  8
0
 62
     0
 10
617.61573650027867
 20
2286.929450597062
 30
0.0
 11
617.61573650027867
 21
2256.9294505970611
 31
0.0
  0
INSERT
  5
A00E
  8
0
 62
     0
  2
_OPEN30
 10
617.61573650027867
 20
2286.929450597062
 30
0.0
 41
30.0
 42
30.0
 43
30.0
 50
270.0
  0
INSERT
  5
A00F
  8
0
 62
     0
  2
_OPEN30
 10
617.61573650027867
 20
2256.9294505970611
 30
0.0
 41
30.0
 42
30.0
 43
30.0
 50
90.0
  0
INSERT
  5
A010
  8
0
  2
*U70
 10
0.0
 20
0.0
 30
0.0
  0
INSERT
  5
A011
  8
0
 62
     0
  2
_OPEN30
 10
1082.42292348402
 20
3443.1778740979039
 30
0.0
 41
30.0
 42
30.0
 43
30.0
 50
251.10198547006419
1001
ACAD
1000
DSTYLE
1002
{
1070
   147
1040
1.5
1070
    77
1070
     0
1002
}
  0
POLYLINE
  5
A012
  8
0
 62
     0
 66
     1
 10
0.0
 20
0.0
 30
0.0
1001
ACAD
1000
DSTYLE
1002
{
1070
   147
1040
1.5
1070
    77
1070
     0
1002
}
  0
VERTEX
  5
A119
  8
0
 62
     0
 10
1092.1394624835409
 20
3471.5607715868991
 30
0.0
  0
VERTEX
  5
A11A
  8
0
 62
     0
 10
1148.932704401135
 20
3637.4590161670149
 30
0.0
  0
SEQEND
  5
A11B
  8
0
 62
     0
  0
LINE
  5
A013
  8
0
 62
     0
 10
1109.4506930703569
 20
2742.1778740979048
 30
0.0
 11
579.17738836775186
 21
2742.1778740979048
 31
0.0
  0
LINE
  5
A014
  8
0
 62
     0
 10
1059.92292348402
 20
3463.1778740979048
 30
0.0
 11
579.1773883677522
 21
3463.1778740979062
 31
0.0
  0
LINE
  5
A015
  8
0
 62
     0
 10
606.17738836775197
 20
2772.1778740979048
 30
0.0
 11
606.17738836775209
 21
3433.1778740979062
 31
0.0
  0
INSERT
  5
A016
  8
0
 62
     0
  2
_OPEN30
 10
606.17738836775197
 20
2742.1778740979048
 30
0.0
 41
30.0
 42
30.0
 43
30.0
 50
270.0
  0
INSERT
  5
A017
  8
0
 62
     0
  2
_OPEN30
 10
606.17738836775209
 20
3463.1778740979062
 30
0.0
 41
30.0
 42
30.0
 43
30.0
 50
90.0
  0
INSERT
  5
A018
  8
0
  2
*U71
 10
0.0
 20
0.0
 30
0.0
  0
VIEWPORT
  5
3941
 67
     1
  8
0
 10
0.0
 20
0.0
 30
0.0
 40
0.0
 41
0.0
 68
     1
 69
     1
1001
ACAD
1000
MVIEW
1002
{
1070
    16
1010
0.0
1020
0.0
1030
0.0
1010
0.0
1020
0.0
1030
1.0
1040
0.0
1040
0.0
1040
0.0
1040
0.0
1040
50.0
1040
0.0
1040
0.0
1070
     0
1070
   100
1070
     1
1070
     1
1070
     1
1070
     1
1070
     0
1070
     0
1040
0.0
1040
0.0
1040
0.0
1040
10.0
1040
10.0
1040
10.0
1040
10.0
1070
     0
1002
{
1002
}
1002
}
1001
GENIUS_GENOBJ-N-SDF_13
1002
{
1000
OWNER
1000
GEN
1002
}
1001
GENIUS_GENODEF_13
1002
{
1000
HIER
1070
     0
1002
}
1002
{
1000
MANEDIT
1070
     0
1002
}
1002
{
1000
NOSEL
1070
     0
1002
}
1002
{
1000
BEHIND
1070
     0
1002
}
1002
{
1000
OTHER
1070
     0
1002
}
1002
{
1000
REACTOR
1002
}
1001
GENIUS_GENSCREG_15
1000
PF
1040
1.0
1000
DF
1040
1.0
1000
MIN
1011
0.0
1021
0.0
1031
0.0
1021
0.0
1031
0.0
1000
MAX
1011
0.0
1021
0.0
1031
0.0
1021
0.0
1031
0.0
1000
FLAGS
1070
     4
  0
VIEWPORT
  5
3943
 67
     1
  8
1
 10
0.0
 20
0.0
 30
0.0
 40
0.0
 41
0.0
 68
     2
 69
     2
1001
ACAD
1000
MVIEW
1002
{
1070
    16
1010
0.0
1020
0.0
1030
0.0
1010
0.0
1020
0.0
1030
1.0
1040
0.0
1040
4455.0
1040
3150.0
1040
2227.5
1040
50.0
1040
0.0
1040
0.0
1070
     0
1070
   100
1070
     1
1070
     1
1070
     0
1070
     0
1070
     0
1070
     0
1040
0.0
1040
0.0
1040
0.0
1040
1.0
1040
1.0
1040
0.0
1040
0.0
1070
     0
1002
{
1002
}
1002
}
1001
GENIUS_GENOBJ-N-SDF_13
1002
{
1000
OWNER
1000
GEN
1002
}
1001
GENIUS_GENODEF_13
1002
{
1000
HIER
1070
     0
1002
}
1002
{
1000
MANEDIT
1070
     0
1002
}
1002
{
1000
NOSEL
1070
     0
1002
}
1002
{
1000
BEHIND
1070
     0
1002
}
1002
{
1000
OTHER
1070
     0
1002
}
1002
{
1000
REACTOR
1002
}
1001
GENIUS_GENSCREG_15
1000
PF
1040
1.0
1000
DF
1040
1.0
1000
MIN
1011
0.0
1021
0.0
1031
0.0
1021
0.0
1031
0.0
1000
MAX
1011
0.0
1021
0.0
1031
0.0
1021
0.0
1031
0.0
1000
FLAGS
1070
     4
  0
ENDSEC
  0
EOF
