  0
SECTION
  2
HEADER
  9
$ACADVER
  1
AC1021
  9
$ACADMAINTVER
 70
    50
  9
$DWGCODEPAGE
  3
ANSI_932
  9
$LASTSAVEDBY
  1
mino-t
  9
$INSBASE
 10
0.0
 20
0.0
 30
0.0
  9
$EXTMIN
 10
80.0
 20
-0.000000000000453
 30
0.0
  9
$EXTMAX
 10
1880.0
 20
2808.0
 30
0.0
  9
$LIMMIN
 10
0.0
 20
0.0
  9
$LIMMAX
 10
2100.0
 20
2970.0
  9
$ORTHOMODE
 70
     1
  9
$REGENMODE
 70
     1
  9
$FILLMODE
 70
     1
  9
$QTEXTMODE
 70
     0
  9
$MIRRTEXT
 70
     0
  9
$LTSCALE
 40
2.5
  9
$ATTMODE
 70
     1
  9
$TEXTSIZE
 40
2.5
  9
$TRACEWID
 40
0.05
  9
$TEXTSTYLE
  7
STANDARD
  9
$CLAYER
  8
0
  9
$CELTYPE
  6
ByLayer
  9
$CECOLOR
 62
   256
  9
$CELTSCALE
 40
1.0
  9
$DISPSILH
 70
     0
  9
$DIMSCALE
 40
10.0
  9
$DIMASZ
 40
2.0
  9
$DIMEXO
 40
1.0
  9
$DIMDLI
 40
7.0
  9
$DIMRND
 40
0.0
  9
$DIMDLE
 40
0.0
  9
$DIMEXE
 40
1.8
  9
$DIMTP
 40
0.0
  9
$DIMTM
 40
0.000000001
  9
$DIMTXT
 40
3.0
  9
$DIMCEN
 40
1.0
  9
$DIMTSZ
 40
0.0
  9
$DIMTOL
 70
     0
  9
$DIMLIM
 70
     0
  9
$DIMTIH
 70
     0
  9
$DIMTOH
 70
     0
  9
$DIMSE1
 70
     0
  9
$DIMSE2
 70
     0
  9
$DIMTAD
 70
     3
  9
$DIMZIN
 70
     9
  9
$DIMBLK
  1
OPEN30
  9
$DIMASO
 70
     1
  9
$DIMSHO
 70
     1
  9
$DIMPOST
  1

  9
$DIMAPOST
  1
"
  9
$DIMALT
 70
     0
  9
$DIMALTD
 70
     2
  9
$DIMALTF
 40
0.0393701
  9
$DIMLFAC
 40
1.0
  9
$DIMTOFL
 70
     1
  9
$DIMTVP
 40
0.0
  9
$DIMTIX
 70
     0
  9
$DIMSOXD
 70
     0
  9
$DIMSAH
 70
     0
  9
$DIMBLK1
  1

  9
$DIMBLK2
  1

  9
$DIMSTYLE
  2
AM_JIS
  9
$DIMCLRD
 70
   256
  9
$DIMCLRE
 70
   256
  9
$DIMCLRT
 70
     4
  9
$DIMTFAC
 40
0.71
  9
$DIMGAP
 40
1.5
  9
$DIMJUST
 70
     0
  9
$DIMSD1
 70
     0
  9
$DIMSD2
 70
     0
  9
$DIMTOLJ
 70
     1
  9
$DIMTZIN
 70
     0
  9
$DIMALTZ
 70
     0
  9
$DIMALTTZ
 70
     0
  9
$DIMUPT
 70
     0
  9
$DIMDEC
 70
     4
  9
$DIMTDEC
 70
     4
  9
$DIMALTU
 70
     2
  9
$DIMALTTD
 70
     2
  9
$DIMTXSTY
  7
STANDARD
  9
$DIMAUNIT
 70
     0
  9
$DIMADEC
 70
     0
  9
$DIMALTRND
 40
0.0
  9
$DIMAZIN
 70
     0
  9
$DIMDSEP
 70
    46
  9
$DIMATFIT
 70
     3
  9
$DIMFRAC
 70
     0
  9
$DIMLDRBLK
  1
OPEN30
  9
$DIMLUNIT
 70
     2
  9
$DIMLWD
 70
    -2
  9
$DIMLWE
 70
    -2
  9
$DIMTMOVE
 70
     0
  9
$DIMFXL
 40
1.0
  9
$DIMFXLON
 70
     0
  9
$DIMJOGANG
 40
0.7853981633974483
  9
$DIMTFILL
 70
     0
  9
$DIMTFILLCLR
 70
     0
  9
$DIMARCSYM
 70
     0
  9
$DIMLTYPE
  6

  9
$DIMLTEX1
  6

  9
$DIMLTEX2
  6

  9
$LUNITS
 70
     2
  9
$LUPREC
 70
     2
  9
$SKETCHINC
 40
0.1
  9
$FILLETRAD
 40
25.0
  9
$AUNITS
 70
     0
  9
$AUPREC
 70
     2
  9
$MENU
  1
amecex
  9
$ELEVATION
 40
0.0
  9
$PELEVATION
 40
0.0
  9
$THICKNESS
 40
0.0
  9
$LIMCHECK
 70
     0
  9
$CHAMFERA
 40
25.0
  9
$CHAMFERB
 40
25.0
  9
$CHAMFERC
 40
0.0
  9
$CHAMFERD
 40
0.0
  9
$SKPOLY
 70
     0
  9
$TDCREATE
 40
2452793.377199074
  9
$TDUCREATE
 40
2452793.002199074
  9
$TDUPDATE
 40
2459529.733368055
  9
$TDUUPDATE
 40
2459529.358368055
  9
$TDINDWG
 40
0.3736494792
  9
$TDUSRTIMER
 40
0.3736494792
  9
$USRTIMER
 70
     1
  9
$ANGBASE
 50
0.0
  9
$ANGDIR
 70
     0
  9
$PDMODE
 70
     0
  9
$PDSIZE
 40
0.0
  9
$PLINEWID
 40
0.0
  9
$SPLFRAME
 70
     0
  9
$SPLINETYPE
 70
     6
  9
$SPLINESEGS
 70
     8
  9
$HANDSEED
  5
62FF
  9
$SURFTAB1
 70
     6
  9
$SURFTAB2
 70
     6
  9
$SURFTYPE
 70
     6
  9
$SURFU
 70
     6
  9
$SURFV
 70
     6
  9
$UCSBASE
  2

  9
$UCSNAME
  2

  9
$UCSORG
 10
0.0
 20
0.0
 30
0.0
  9
$UCSXDIR
 10
1.0
 20
0.0
 30
0.0
  9
$UCSYDIR
 10
0.0
 20
1.0
 30
0.0
  9
$UCSORTHOREF
  2

  9
$UCSORTHOVIEW
 70
     0
  9
$UCSORGTOP
 10
0.0
 20
0.0
 30
0.0
  9
$UCSORGBOTTOM
 10
0.0
 20
0.0
 30
0.0
  9
$UCSORGLEFT
 10
0.0
 20
0.0
 30
0.0
  9
$UCSORGRIGHT
 10
0.0
 20
0.0
 30
0.0
  9
$UCSORGFRONT
 10
0.0
 20
0.0
 30
0.0
  9
$UCSORGBACK
 10
0.0
 20
0.0
 30
0.0
  9
$PUCSBASE
  2

  9
$PUCSNAME
  2

  9
$PUCSORG
 10
0.0
 20
0.0
 30
0.0
  9
$PUCSXDIR
 10
1.0
 20
0.0
 30
0.0
  9
$PUCSYDIR
 10
0.0
 20
1.0
 30
0.0
  9
$PUCSORTHOREF
  2

  9
$PUCSORTHOVIEW
 70
     0
  9
$PUCSORGTOP
 10
0.0
 20
0.0
 30
0.0
  9
$PUCSORGBOTTOM
 10
0.0
 20
0.0
 30
0.0
  9
$PUCSORGLEFT
 10
0.0
 20
0.0
 30
0.0
  9
$PUCSORGRIGHT
 10
0.0
 20
0.0
 30
0.0
  9
$PUCSORGFRONT
 10
0.0
 20
0.0
 30
0.0
  9
$PUCSORGBACK
 10
0.0
 20
0.0
 30
0.0
  9
$USERI1
 70
     0
  9
$USERI2
 70
     0
  9
$USERI3
 70
     0
  9
$USERI4
 70
     0
  9
$USERI5
 70
     0
  9
$USERR1
 40
30.0
  9
$USERR2
 40
0.0
  9
$USERR3
 40
0.0
  9
$USERR4
 40
0.0
  9
$USERR5
 40
0.0
  9
$WORLDVIEW
 70
     1
  9
$SHADEDGE
 70
     3
  9
$SHADEDIF
 70
    70
  9
$TILEMODE
 70
     1
  9
$MAXACTVP
 70
    16
  9
$PINSBASE
 10
0.0
 20
0.0
 30
0.0
  9
$PLIMCHECK
 70
     0
  9
$PEXTMIN
 10
1.000000000000000E+20
 20
1.000000000000000E+20
 30
1.000000000000000E+20
  9
$PEXTMAX
 10
-1.000000000000000E+20
 20
-1.000000000000000E+20
 30
-1.000000000000000E+20
  9
$PLIMMIN
 10
0.0
 20
0.0
  9
$PLIMMAX
 10
12.0
 20
9.0
  9
$UNITMODE
 70
     0
  9
$VISRETAIN
 70
     0
  9
$PLINEGEN
 70
     0
  9
$PSLTSCALE
 70
     0
  9
$TREEDEPTH
 70
  3020
  9
$CMLSTYLE
  2
Standard
  9
$CMLJUST
 70
     0
  9
$CMLSCALE
 40
1.0
  9
$PROXYGRAPHICS
 70
     1
  9
$MEASUREMENT
 70
     0
  9
$CELWEIGHT
370
    -1
  9
$ENDCAPS
280
     0
  9
$JOINSTYLE
280
     0
  9
$LWDISPLAY
290
     0
  9
$INSUNITS
 70
     0
  9
$HYPERLINKBASE
  1

  9
$STYLESHEET
  1

  9
$XEDIT
290
     1
  9
$CEPSNTYPE
380
     0
  9
$PSTYLEMODE
290
     1
  9
$FINGERPRINTGUID
  2
{051ADFD5-E09D-EE4B-A1EE-0DC66E078851}
  9
$VERSIONGUID
  2
{73B867D5-63C7-464D-9484-6E66A5BE6891}
  9
$EXTNAMES
290
     1
  9
$PSVPSCALE
 40
0.0
  9
$OLESTARTUP
290
     0
  9
$SORTENTS
280
   127
  9
$INDEXCTL
280
     0
  9
$HIDETEXT
280
     0
  9
$XCLIPFRAME
290
     0
  9
$HALOGAP
280
     0
  9
$OBSCOLOR
 70
   257
  9
$OBSLTYPE
280
     0
  9
$INTERSECTIONDISPLAY
280
     0
  9
$INTERSECTIONCOLOR
 70
   257
  9
$DIMASSOC
280
     1
  9
$PROJECTNAME
  1

  9
$CAMERADISPLAY
290
     0
  9
$LENSLENGTH
 40
50.0
  9
$CAMERAHEIGHT
 40
0.0
  9
$STEPSPERSEC
 40
2.0
  9
$STEPSIZE
 40
6.0
  9
$3DDWFPREC
 40
2.0
  9
$PSOLWIDTH
 40
0.25
  9
$PSOLHEIGHT
 40
4.0
  9
$LOFTANG1
 40
1.570796326794896
  9
$LOFTANG2
 40
1.570796326794896
  9
$LOFTMAG1
 40
0.0
  9
$LOFTMAG2
 40
0.0
  9
$LOFTPARAM
 70
     7
  9
$LOFTNORMALS
280
     1
  9
$LATITUDE
 40
37.795
  9
$LONGITUDE
 40
-122.394
  9
$NORTHDIRECTION
 40
0.0
  9
$TIMEZONE
 70
 -8000
  9
$LIGHTGLYPHDISPLAY
280
     1
  9
$TILEMODELIGHTSYNCH
280
     1
  9
$CMATERIAL
347
610A
  9
$SOLIDHIST
280
     0
  9
$SHOWHIST
280
     1
  9
$DWFFRAME
280
     2
  9
$DGNFRAME
280
     0
  9
$REALWORLDSCALE
290
     1
  9
$INTERFERECOLOR
 62
     1
  9
$INTERFEREOBJVS
345
612C
  9
$INTERFEREVPVS
346
6129
  9
$CSHADOW
280
     0
  9
$SHADOWPLANELOCATION
 40
0.0
  0
ENDSEC
  0
SECTION
  2
CLASSES
  0
CLASS
  1
ACDBDICTIONARYWDFLT
  2
AcDbDictionaryWithDefault
  3
ObjectDBX Classes
 90
        0
 91
        1
280
     0
281
     0
  0
CLASS
  1
MATERIAL
  2
AcDbMaterial
  3
ObjectDBX Classes
 90
     1153
 91
        3
280
     0
281
     0
  0
CLASS
  1
VISUALSTYLE
  2
AcDbVisualStyle
  3
ObjectDBX Classes
 90
     4095
 91
       24
280
     0
281
     0
  0
CLASS
  1
SCALE
  2
AcDbScale
  3
ObjectDBX Classes
 90
     1153
 91
       17
280
     0
281
     0
  0
CLASS
  1
TABLESTYLE
  2
AcDbTableStyle
  3
ObjectDBX Classes
 90
     4095
 91
        1
280
     0
281
     0
  0
CLASS
  1
MLEADERSTYLE
  2
AcDbMLeaderStyle
  3
ACDB_MLEADERSTYLE_CLASS
 90
     4095
 91
        1
280
     0
281
     0
  0
CLASS
  1
ACDBSECTIONVIEWSTYLE
  2
AcDbSectionViewStyle
  3
ObjectDBX Classes
 90
     1025
 91
        2
280
     0
281
     0
  0
CLASS
  1
ACDBDETAILVIEWSTYLE
  2
AcDbDetailViewStyle
  3
ObjectDBX Classes
 90
     1025
 91
        2
280
     0
281
     0
  0
CLASS
  1
AMGSETTINGSOBJ
  2
AmgSettingsObj
  3
"AcadM|Product Description: AutoCAD Mechanical|Company: Autodesk, Inc."
 90
     1024
 91
        2
280
     0
281
     0
  0
CLASS
  1
ACME_DOCUMENT
  2
AcMeDbDoc
  3
AcMeServices
 90
     1024
 91
        1
280
     0
281
     0
  0
CLASS
  1
ACMESCOPE
  2
AcMeScope
  3
AcMeServices
 90
     1024
 91
        1
280
     0
281
     0
  0
CLASS
  1
ACMECOMMANDHISTORY
  2
AcMeCommandHistory
  3
AcMeServices
 90
     1024
 91
        1
280
     0
281
     0
  0
CLASS
  1
ACIMSYSVARMAN
  2
AcImSysVarManager
  3
AcMeServices
 90
     1024
 91
        3
280
     0
281
     0
  0
CLASS
  1
ACIMINTSYSVAR
  2
AcImIntSysVar
  3
AcMeServices
 90
     1024
 91
        3
280
     0
281
     0
  0
CLASS
  1
ACMESTATEMGR
  2
AcMeStateMgr
  3
AcMeServices
 90
     1024
 91
        1
280
     0
281
     0
  0
CLASS
  1
ACDBENTITYCACHE
  2
AcMeEntityCache
  3
AcMeServices
 90
     1024
 91
        1
280
     0
281
     0
  0
CLASS
  1
ACGREFMASTER
  2
AcGrefMaster
  3
AcAttribServices
 90
     1024
 91
        1
280
     0
281
     0
  0
CLASS
  1
ACME_DATABASE
  2
AcMeDbDatabase
  3
AcMeServices
 90
     1024
 91
        1
280
     0
281
     0
  0
CLASS
  1
ACRFINSADJUSTERMGR
  2
AcRfInsAdjusterMgr
  3
AcMeServices
 90
     1024
 91
        1
280
     0
281
     0
  0
CLASS
  1
ACGREFACADMASTER
  2
AcGrefacadMaster
  3
AcGrefServices
 90
     1024
 91
        1
280
     0
281
     0
  0
CLASS
  1
AMIMASTER
  2
AmiMaster
  3
AmiServices
 90
     1024
 91
        1
280
     0
281
     0
  0
CLASS
  1
AMDTMENUSTATEMGR
  2
AmdtMenuStateMgr
  3
McadcomServices
 90
     1024
 91
        1
280
     0
281
     0
  0
CLASS
  1
AMDTMCOMMENUSTATE
  2
AmdtMcomMenuState
  3
McadcomServices
 90
     1024
 91
        1
280
     0
281
     0
  0
CLASS
  1
MAPIAMMOUDLE
  2
MApiAmModule
  3
MApiAmServices
 90
     1024
 91
        1
280
     0
281
     0
  0
CLASS
  1
ACIMSTRSYSVAR
  2
AcImStrSysVar
  3
AcMeServices
 90
     1024
 91
        5
280
     0
281
     0
  0
CLASS
  1
AMDTAMMENUSTATE
  2
AmdtAmMenuState
  3
DesignerAssemblies_arx
 90
     1024
 91
        1
280
     0
281
     0
  0
CLASS
  1
ACAMPROJECT
  2
AcAmProject
  3
DesignerAssemblies
 90
     1024
 91
        1
280
     0
281
     0
  0
CLASS
  1
ACAMGRCOMPDEF
  2
AcAmGrCompDef
  3
DesignerAssemblies
 90
     1024
 91
        1
280
     0
281
     0
  0
CLASS
  1
ACAMCOMPDEF
  2
AcAmCompDef
  3
DesignerAssemblies
 90
     1024
 91
        1
280
     0
281
     0
  0
CLASS
  1
ACAMCOMPDEFMGR
  2
AcAmCompDefMgr
  3
DesignerAssemblies
 90
     1024
 91
        1
280
     0
281
     0
  0
CLASS
  1
AMCONTEXTMGR
  2
AcAmContextMgr
  3
DesignerAssemblies
 90
     1024
 91
        1
280
     0
281
     0
  0
CLASS
  1
ACAMCONTEXTMODELER
  2
AcAmContextModeler
  3
DesignerAssemblies
 90
     1024
 91
        1
280
     0
281
     0
  0
CLASS
  1
ACMDATADICTIONARY
  2
AcmDataDictionary
  3
"AcmSymBB|Product Description: AutoCAD Mechanical|Company: Autodesk, Inc."
 90
     1024
 91
        1
280
     0
281
     0
  0
CLASS
  1
ACAMGRCOMPDEFSET
  2
AcAmGrCompDefSet
  3
DesignerAssemblies
 90
     1024
 91
        1
280
     0
281
     0
  0
CLASS
  1
AMDTBROWSERDBTAB
  2
AmdtBrowserDbTab
  3
McadcomServices
 90
     1024
 91
        1
280
     0
281
     0
  0
CLASS
  1
CBROWSERAPPOBJECT
  2
CBrowserAppObject
  3
McadcomServices
 90
     1024
 91
        2
280
     0
281
     0
  0
CLASS
  1
DM_PLACEHOLDER
  2
AcDmSelsetPlaceholder
  3
McadcomServices
 90
     1024
 91
        1
280
     0
281
     0
  0
CLASS
  1
ACMSTANDARDANSI
  2
AcmStandardANSI
  3
"Amdt_StdImp|Product Description: AutoCAD Mechanical|Company: Autodesk, Inc."
 90
     1024
 91
        1
280
     0
281
     0
  0
CLASS
  1
ACMSURFSTANDARDANSI
  2
AcmSurfTextStdANSI
  3
"Amdt_StdImp|Product Description: AutoCAD Mechanical|Company: Autodesk, Inc."
 90
     1024
 91
        1
280
     0
281
     0
  0
CLASS
  1
ACMFCFSTANDARDANSI
  2
AcmFCFStdANSI
  3
"Amdt_StdImp|Product Description: AutoCAD Mechanical|Company: Autodesk, Inc."
 90
     1024
 91
        1
280
     0
281
     0
  0
CLASS
  1
ACMWELDSTANDARDANSI
  2
AcmWeldingStdANSI
  3
"Amdt_StdImp|Product Description: AutoCAD Mechanical|Company: Autodesk, Inc."
 90
     1024
 91
        1
280
     0
281
     0
  0
CLASS
  1
ACMIDSTANDARDANSI
  2
AcmIdStdANSI
  3
"Amdt_StdImp|Product Description: AutoCAD Mechanical|Company: Autodesk, Inc."
 90
     1024
 91
        1
280
     0
281
     0
  0
CLASS
  1
ACMDATUMSTANDARDANSI
  2
AcmDatumStdANSI
  3
"Amdt_StdImp|Product Description: AutoCAD Mechanical|Company: Autodesk, Inc."
 90
     1024
 91
        1
280
     0
281
     0
  0
CLASS
  1
ACMBOMSTANDARDANSI
  2
AcmBOMStdANSI
  3
"Amdt_StdImp|Product Description: AutoCAD Mechanical|Company: Autodesk, Inc."
 90
     1024
 91
        1
280
     0
281
     0
  0
CLASS
  1
ACMDETAILSTANDARDANSI
  2
AmdtDetailSymStdANSI
  3
"Amdt_StdImp|Product Description: AutoCAD Mechanical|Company: Autodesk, Inc."
 90
     1024
 91
        1
280
     0
281
     0
  0
CLASS
  1
ACMSECTIONSTANDARDANSI
  2
AmdtSectionSymStdANSI
  3
"Amdt_StdImp|Product Description: AutoCAD Mechanical|Company: Autodesk, Inc."
 90
     1024
 91
        1
280
     0
281
     0
  0
CLASS
  1
ACMCENTERLINESTANDARDANSI
  2
AmdtCenterLineStdANSI
  3
"Amdt_StdImp|Product Description: AutoCAD Mechanical|Company: Autodesk, Inc."
 90
     1024
 91
        1
280
     0
281
     0
  0
CLASS
  1
ACMTHREADLINESTANDARDANSI
  2
AmdtThreadLineStdANSI
  3
"Amdt_StdImp|Product Description: AutoCAD Mechanical|Company: Autodesk, Inc."
 90
     1024
 91
        1
280
     0
281
     0
  0
CLASS
  1
ACMNOTESTANDARDANSI
  2
AmdtNoteStdANSI
  3
"Amdt_StdImp|Product Description: AutoCAD Mechanical|Company: Autodesk, Inc."
 90
     1024
 91
        1
280
     0
281
     0
  0
CLASS
  1
ACMTAPERSTANDARDANSI
  2
AcmTaperStdANSI
  3
"Amdt_StdImp|Product Description: AutoCAD Mechanical|Company: Autodesk, Inc."
 90
     1024
 91
        1
280
     0
281
     0
  0
CLASS
  1
ACMANOOTATIONVIEWSTANDARDANSI
  2
AmdtAnViewStdANSI
  3
"Amdt_StdImp|Product Description: AutoCAD Mechanical|Company: Autodesk, Inc."
 90
     1024
 91
        1
280
     0
281
     0
  0
CLASS
  1
ACAMGLAYSTD
  2
AcAmgLayStd
  3
"AmgLay|Product Description: AutoCAD Mechanical|Company: Autodesk, Inc."
 90
     1024
 91
        1
280
     0
281
     0
  0
CLASS
  1
ACAMGTITLESTD
  2
AcAmgTitleStd
  3
"AmgTitle|Product Description: AutoCAD Mechanical|Company: Autodesk, Inc."
 90
     1024
 91
        1
280
     0
281
     0
  0
CLASS
  1
ACAMGDIMSTD
  2
AcAmgDimStd
  3
"AmgDim|Product Description: AutoCAD Mechanical|Company: Autodesk, Inc."
 90
     1024
 91
        1
280
     0
281
     0
  0
CLASS
  1
ACAMGHOLECHARTSTDANSI
  2
AcAmgHoleChartStdANSI
  3
"AmgDim" "Product Description: AutoCAD Mechanical|Company: Autodesk, Inc."
 90
     1024
 91
        1
280
     0
281
     0
  0
CLASS
  1
AMGOBJPROPCFG
  2
AmgObjPropCfg
  3
"AmgLay|Product Description: AutoCAD Mechanical|Company: Autodesk, Inc."
 90
     1024
 91
        1
280
     0
281
     0
  0
CLASS
  1
ACMSECTIONSTANDARDCUSTOM
  2
AmdtSectionSymStdCustom
  3
"Amdt_StdImp|Product Description: AutoCAD Mechanical|Company: Autodesk, Inc."
 90
     1024
 91
        1
280
     0
281
     0
  0
CLASS
  1
ACMDETAILTANDARDCUSTOM
  2
AmdtDetailSymStdCustom
  3
"Amdt_StdImp|Product Description: AutoCAD Mechanical|Company: Autodesk, Inc."
 90
     1024
 91
        1
280
     0
281
     0
  0
CLASS
  1
FIELD
  2
AcDbField
  3
ObjectDBX Classes
 90
     1152
 91
        8
280
     0
281
     0
  0
CLASS
  1
FIELDLIST
  2
AcDbFieldList
  3
ObjectDBX Classes
 90
     1152
 91
        1
280
     0
281
     0
  0
CLASS
  1
AMDTNOTETEMPLATEDB
  2
AmdtNoteTemplateDB
  3
"AcmSymBB" "Product Description: AutoCAD Mechanical|Company: Autodesk, Inc."
 90
     1024
 91
        7
280
     0
281
     0
  0
CLASS
  1
ACAMGFILTERDAT
  2
AcAmgFilterDat
  3
"AcadM|Product Description: AutoCAD Mechanical|Company: Autodesk, Inc."
 90
     1024
 91
        6
280
     0
281
     0
  0
CLASS
  1
SORTENTSTABLE
  2
AcDbSortentsTable
  3
ObjectDBX Classes
 90
        0
 91
        1
280
     0
281
     0
  0
CLASS
  1
DICTIONARYVAR
  2
AcDbDictionaryVar
  3
ObjectDBX Classes
 90
        0
 91
       10
280
     0
281
     0
  0
CLASS
  1
CELLSTYLEMAP
  2
AcDbCellStyleMap
  3
ObjectDBX Classes
 90
     1152
 91
        1
280
     0
281
     0
  0
ENDSEC
  0
SECTION
  2
TABLES
  0
TABLE
  2
VPORT
  5
6101
330
0
100
AcDbSymbolTable
 70
     1
  0
VPORT
  5
616C
330
6101
100
AcDbSymbolTableRecord
100
AcDbViewportTableRecord
  2
*ACTIVE
 70
     0
 10
0.0
 20
0.0
 11
1.0
 21
1.0
 12
1682.453640820444
 22
1090.204604083862
 13
0.0
 23
0.0
 14
25.0
 24
25.0
 15
100.0
 25
100.0
 16
0.0
 26
0.0
 36
1.0
 17
0.0
 27
0.0
 37
0.0
 40
3759.360637980862
 41
1.931540342298288
 42
50.0
 43
0.0
 44
0.0
 50
0.0
 51
0.0
 71
     0
 72
   100
 73
     1
 74
     1
 75
     0
 76
     0
 77
     0
 78
     0
281
     0
 65
     0
110
0.0
120
0.0
130
0.0
111
1.0
121
0.0
131
0.0
112
0.0
122
1.0
132
0.0
 79
     0
146
0.0
348
6128
 60
     3
 61
     5
292
     1
282
     0
141
0.0
142
0.0
 63
   250
421
  3355443
1001
ACAD_NAV_VCDISPLAY
1070
     3
  0
ENDTAB
  0
TABLE
  2
LTYPE
  5
60FE
330
0
100
AcDbSymbolTable
 70
    17
  0
LTYPE
  5
6153
330
60FE
100
AcDbSymbolTableRecord
100
AcDbLinetypeTableRecord
  2
ByBlock
 70
     0
  3

 72
    65
 73
     0
 40
0.0
  0
LTYPE
  5
6154
330
60FE
100
AcDbSymbolTableRecord
100
AcDbLinetypeTableRecord
  2
ByLayer
 70
     0
  3

 72
    65
 73
     0
 40
0.0
  0
LTYPE
  5
6155
330
60FE
100
AcDbSymbolTableRecord
100
AcDbLinetypeTableRecord
  2
CONTINUOUS
 70
     0
  3
実線
 72
    65
 73
     0
 40
0.0
  0
LTYPE
  5
616D
330
60FE
100
AcDbSymbolTableRecord
100
AcDbLinetypeTableRecord
  2
AMCONSTR
 70
     0
  3
_______________________
 72
    65
 73
     2
 40
9999.0
 49
9999.0
 74
     0
 49
0.0
 74
     0
  0
LTYPE
  5
616E
330
60FE
100
AcDbSymbolTableRecord
100
AcDbLinetypeTableRecord
  2
HIDDEN
 70
     0
  3
Hidden __ __ __ __ __ __ __ __ __ __ __ __ __ _
 72
    65
 73
     2
 40
9.524999999999998
 49
6.349999999999997
 74
     0
 49
-3.174999999999998
 74
     0
  0
LTYPE
  5
616F
330
60FE
100
AcDbSymbolTableRecord
100
AcDbLinetypeTableRecord
  2
CENTER
 70
     0
  3
Center ____ _ ____ _ ____ _ ____ _ ____ _ ____
 72
    65
 73
     4
 40
50.8
 49
31.75
 74
     0
 49
-6.349999999999997
 74
     0
 49
6.349999999999997
 74
     0
 49
-6.349999999999997
 74
     0
  0
LTYPE
  5
6170
330
60FE
100
AcDbSymbolTableRecord
100
AcDbLinetypeTableRecord
  2
PHANTOM2
 70
     0
  3
Phantom (.5x) ___ _ _ ___ _ _ ___ _ _ ___ _ _
 72
    65
 73
     6
 40
31.75
 49
15.875
 74
     0
 49
-3.174999999999998
 74
     0
 49
3.174999999999998
 74
     0
 49
-3.174999999999998
 74
     0
 49
3.174999999999998
 74
     0
 49
-3.174999999999998
 74
     0
  0
LTYPE
  5
6171
330
60FE
100
AcDbSymbolTableRecord
100
AcDbLinetypeTableRecord
  2
HIDDEN2
 70
     0
  3
_ _ _ _ _ _ _ _ _ _ _ _ _ _ _ _ _ _ _ _ _ _ _ _
 72
    65
 73
     2
 40
0.1875
 49
0.125
 74
     0
 49
-0.0625
 74
     0
  0
LTYPE
  5
6172
330
60FE
100
AcDbSymbolTableRecord
100
AcDbLinetypeTableRecord
  2
CENTER2
 70
     0
  3
Center (.5x) ___ _ ___ _ ___ _ ___ _ ___ _ ___
 72
    65
 73
     4
 40
1.125
 49
0.75
 74
     0
 49
-0.125
 74
     0
 49
0.125
 74
     0
 49
-0.125
 74
     0
  0
LTYPE
  5
6173
330
60FE
100
AcDbSymbolTableRecord
100
AcDbLinetypeTableRecord
  2
AMZIGZAG2
 70
     0
  3
/\/-/\/-/\/-/\/-/\/-/\/
 72
    65
 73
     2
 40
0.4401
 49
0.0001
 74
     0
 49
-0.4400000000000003
 74
     0
  0
LTYPE
  5
6174
330
60FE
100
AcDbSymbolTableRecord
100
AcDbLinetypeTableRecord
  2
ACANSTGB
 70
     0
  3
__ . . __ . .
 72
    65
 73
     6
 40
0.35433070866
 49
0.15748031496
 74
     0
 49
-0.03937007874
 74
     0
 49
0.03937007874
 74
     0
 49
-0.03937007874
 74
     0
 49
0.03937007874
 74
     0
 49
-0.03937007874
 74
     0
  0
LTYPE
  5
6175
330
60FE
100
AcDbSymbolTableRecord
100
AcDbLinetypeTableRecord
  2
ACANSTGL
 70
     0
  3
_ _ _ _ _
 72
    65
 73
     2
 40
0.11811023622
 49
0.07874015748
 74
     0
 49
-0.03937007874
 74
     0
  0
ENDTAB
  0
TABLE
  2
LAYER
  5
60FB
330
0
100
AcDbSymbolTable
 70
     4
  0
LAYER
  5
614D
102
{ACAD_XDICTIONARY
360
62B9
102
}
330
60FB
100
AcDbSymbolTableRecord
100
AcDbLayerTableRecord
  2
0
 70
     0
 62
     7
  6
CONTINUOUS
370
    -3
390
6108
347
611A
  0
LAYER
  5
6176
330
60FB
100
AcDbSymbolTableRecord
100
AcDbLayerTableRecord
  2
DEFPOINTS
 70
     0
 62
     7
  6
CONTINUOUS
290
     0
370
    -3
390
6108
347
611A
  0
LAYER
  5
6177
102
{ACAD_XDICTIONARY
360
62BB
102
}
330
60FB
100
AcDbSymbolTableRecord
100
AcDbLayerTableRecord
  2
HOJYO
 70
     0
 62
     6
  6
CONTINUOUS
370
    -3
390
6108
347
611A
  0
ENDTAB
  0
TABLE
  2
STYLE
  5
60FC
330
0
100
AcDbSymbolTable
 70
     6
  0
STYLE
  5
614E
330
60FC
100
AcDbSymbolTableRecord
100
AcDbTextStyleTableRecord
  2
STANDARD
 70
     0
 40
0.0
 41
1.0
 50
0.0
 71
     0
 42
2.5
  3
txt.shx
  4
extfont2.shx
  0
STYLE
  5
6178
330
60FC
100
AcDbSymbolTableRecord
100
AcDbTextStyleTableRecord
  2
MONO-SET
 70
     0
 40
0.0
 41
1.0
 50
0.0
 71
     0
 42
0.2
  3
MONOTXT
  4
BIGFONT
  0
STYLE
  5
6179
330
60FC
100
AcDbSymbolTableRecord
100
AcDbTextStyleTableRecord
  2
ACANSGDT
 70
     0
 40
0.0
 41
1.0
 50
0.0
 71
     0
 42
60.0
  3
amgdt.shx
  4

  0
ENDTAB
  0
TABLE
  2
VIEW
  5
60FF
330
0
100
AcDbSymbolTable
 70
     0
  0
ENDTAB
  0
TABLE
  2
UCS
  5
6100
330
0
100
AcDbSymbolTable
 70
     0
  0
ENDTAB
  0
TABLE
  2
APPID
  5
6102
330
0
100
AcDbSymbolTable
 70
    52
  0
APPID
  5
614F
330
6102
100
AcDbSymbolTableRecord
100
AcDbRegAppTableRecord
  2
ACAD
 70
     0
  0
APPID
  5
6156
330
6102
100
AcDbSymbolTableRecord
100
AcDbRegAppTableRecord
  2
ACADANNOTATIVE
 70
     0
  0
APPID
  5
617A
330
6102
100
AcDbSymbolTableRecord
100
AcDbRegAppTableRecord
  2
ACE-LT__COPYRIGHT_TRIALSOFT-JPN
 70
     0
  0
APPID
  5
617B
330
6102
100
AcDbSymbolTableRecord
100
AcDbRegAppTableRecord
  2
MCAD_NO_VIS
 70
     0
  0
APPID
  5
617C
330
6102
100
AcDbSymbolTableRecord
100
AcDbRegAppTableRecord
  2
ACAD_TEMP_GRAPHIC
 70
     0
  0
APPID
  5
617D
330
6102
100
AcDbSymbolTableRecord
100
AcDbRegAppTableRecord
  2
ACATTRIBSERVICES
 70
     0
  0
APPID
  5
617E
330
6102
100
AcDbSymbolTableRecord
100
AcDbRegAppTableRecord
  2
DESIGNERASSEMBLIES
 70
     0
  0
APPID
  5
617F
330
6102
100
AcDbSymbolTableRecord
100
AcDbRegAppTableRecord
  2
ACAD_DSTYLE_DIMJAG
 70
     0
  0
APPID
  5
6180
330
6102
100
AcDbSymbolTableRecord
100
AcDbRegAppTableRecord
  2
ACAD_DSTYLE_DIMBREAK
 70
     0
  0
APPID
  5
6181
330
6102
100
AcDbSymbolTableRecord
100
AcDbRegAppTableRecord
  2
ACAD_NAV_VCDISPLAY
 70
     0
  0
APPID
  5
6182
330
6102
100
AcDbSymbolTableRecord
100
AcDbRegAppTableRecord
  2
ACAD_DSTYLE_DIMTALN
 70
     0
  0
APPID
  5
6183
330
6102
100
AcDbSymbolTableRecord
100
AcDbRegAppTableRecord
  2
ACAD_PSEXT
 70
     0
  0
APPID
  5
6184
330
6102
100
AcDbSymbolTableRecord
100
AcDbRegAppTableRecord
  2
ACAD_EXEMPT_FROM_CAD_STANDARDS
 70
     0
  0
APPID
  5
6185
330
6102
100
AcDbSymbolTableRecord
100
AcDbRegAppTableRecord
  2
ACAECLAYERSTANDARD
 70
     0
  0
APPID
  5
6186
330
6102
100
AcDbSymbolTableRecord
100
AcDbRegAppTableRecord
  2
GENIUS_GENDTOL_13
 70
     0
  0
APPID
  5
6187
330
6102
100
AcDbSymbolTableRecord
100
AcDbRegAppTableRecord
  2
ACAD_DSTYLE_DIMINSPECT
 70
     0
  0
APPID
  5
6188
330
6102
100
AcDbSymbolTableRecord
100
AcDbRegAppTableRecord
  2
ACADANNOMONITORALERTICONDI
 70
     0
  0
APPID
  5
6189
330
6102
100
AcDbSymbolTableRecord
100
AcDbRegAppTableRecord
  2
GENIUS_GENREC_14
 70
     0
  0
APPID
  5
618A
330
6102
100
AcDbSymbolTableRecord
100
AcDbRegAppTableRecord
  2
GENIUS_GENOBJ-N-REC_13
 70
     0
  0
APPID
  5
618B
330
6102
100
AcDbSymbolTableRecord
100
AcDbRegAppTableRecord
  2
GENIUS_GENODEF_13
 70
     0
  0
APPID
  5
618C
330
6102
100
AcDbSymbolTableRecord
100
AcDbRegAppTableRecord
  2
ACADANNOPO
 70
     0
  0
APPID
  5
618D
330
6102
100
AcDbSymbolTableRecord
100
AcDbRegAppTableRecord
  2
ACAD_MLEADERVER
 70
     0
  0
APPID
  5
618E
330
6102
100
AcDbSymbolTableRecord
100
AcDbRegAppTableRecord
  2
AD_DRAW
 70
     0
  0
APPID
  5
618F
330
6102
100
AcDbSymbolTableRecord
100
AcDbRegAppTableRecord
  2
ACADM_DIM_EDIT
 70
     0
  0
APPID
  5
6190
330
6102
100
AcDbSymbolTableRecord
100
AcDbRegAppTableRecord
  2
AMDT_DM_ADJ
 70
     0
  0
APPID
  5
6191
330
6102
100
AcDbSymbolTableRecord
100
AcDbRegAppTableRecord
  2
ACAD_DSTYLE_DIMARC_LENGTH_
 70
     0
  0
APPID
  5
6192
330
6102
100
AcDbSymbolTableRecord
100
AcDbRegAppTableRecord
  2
ACAD_DSTYLE_DIMJOGGED_JOGA
 70
     0
  0
APPID
  5
6193
330
6102
100
AcDbSymbolTableRecord
100
AcDbRegAppTableRecord
  2
GEVID1362489746
 70
     0
  0
APPID
  5
6194
330
6102
100
AcDbSymbolTableRecord
100
AcDbRegAppTableRecord
  2
GENIUS_GENBH_13
 70
     0
  0
APPID
  5
6195
330
6102
100
AcDbSymbolTableRecord
100
AcDbRegAppTableRecord
  2
GENIUS_GENOENT_13
 70
     0
  0
APPID
  5
6196
330
6102
100
AcDbSymbolTableRecord
100
AcDbRegAppTableRecord
  2
GENIUS_GENOLIS_13
 70
     0
  0
APPID
  5
6197
330
6102
100
AcDbSymbolTableRecord
100
AcDbRegAppTableRecord
  2
GENIUS_GENOBJ-NBEHI-BHF_13
 70
     0
  0
APPID
  5
6198
330
6102
100
AcDbSymbolTableRecord
100
AcDbRegAppTableRecord
  2
GENIUS_GENOREF_13
 70
     0
  0
APPID
  5
6199
330
6102
100
AcDbSymbolTableRecord
100
AcDbRegAppTableRecord
  2
GENIUS_GENOBJ-NBEHI-BHB_13
 70
     0
  0
APPID
  5
619A
330
6102
100
AcDbSymbolTableRecord
100
AcDbRegAppTableRecord
  2
GEVID1362489747
 70
     0
  0
APPID
  5
619B
330
6102
100
AcDbSymbolTableRecord
100
AcDbRegAppTableRecord
  2
ACM_PP_DIM_CONSTRAINT
 70
     0
  0
APPID
  5
619C
330
6102
100
AcDbSymbolTableRecord
100
AcDbRegAppTableRecord
  2
ACM_PP_ASSOCVAR
 70
     0
  0
APPID
  5
619D
330
6102
100
AcDbSymbolTableRecord
100
AcDbRegAppTableRecord
  2
ACM_PP_DIM_ACTION_MACRO
 70
     0
  0
APPID
  5
619E
330
6102
100
AcDbSymbolTableRecord
100
AcDbRegAppTableRecord
  2
ACM_PP_DIM_CONSTRAINT_DRAG_GRIP
 70
     0
  0
APPID
  5
619F
330
6102
100
AcDbSymbolTableRecord
100
AcDbRegAppTableRecord
  2
GEVID1362489748
 70
     0
  0
APPID
  5
61A0
330
6102
100
AcDbSymbolTableRecord
100
AcDbRegAppTableRecord
  2
ACAUTHENVIRON
 70
     0
  0
APPID
  5
61A1
330
6102
100
AcDbSymbolTableRecord
100
AcDbRegAppTableRecord
  2
ACDBDYNAMICBLOCKTRUENAME
 70
     0
  0
APPID
  5
61A2
330
6102
100
AcDbSymbolTableRecord
100
AcDbRegAppTableRecord
  2
ACDBDYNAMICBLOCKGUID
 70
     0
  0
APPID
  5
61A3
330
6102
100
AcDbSymbolTableRecord
100
AcDbRegAppTableRecord
  2
GENIUS_GENTRA_14
 70
     0
  0
APPID
  5
61A4
330
6102
100
AcDbSymbolTableRecord
100
AcDbRegAppTableRecord
  2
GENIUS_GENOBJ-N-CEN_13
 70
     0
  0
APPID
  5
61A5
330
6102
100
AcDbSymbolTableRecord
100
AcDbRegAppTableRecord
  2
GENIUS_GENCEN_19
 70
     0
  0
APPID
  5
61A6
330
6102
100
AcDbSymbolTableRecord
100
AcDbRegAppTableRecord
  2
ACLAYERTOOLS
 70
     0
  0
APPID
  5
61A7
330
6102
100
AcDbSymbolTableRecord
100
AcDbRegAppTableRecord
  2
ACAD_DSTYLE_DIMRADIAL_EXTENSION
 70
     0
  0
APPID
  5
61A8
330
6102
100
AcDbSymbolTableRecord
100
AcDbRegAppTableRecord
  2
ACAD_DSTYLE_DIM_LINETYPE
 70
     0
  0
APPID
  5
61A9
330
6102
100
AcDbSymbolTableRecord
100
AcDbRegAppTableRecord
  2
ACAD_DSTYLE_DIM_EXT1_LINETYPE
 70
     0
  0
APPID
  5
61AA
330
6102
100
AcDbSymbolTableRecord
100
AcDbRegAppTableRecord
  2
ACAD_DSTYLE_DIM_EXT2_LINETYPE
 70
     0
  0
APPID
  5
6258
330
6102
100
AcDbSymbolTableRecord
100
AcDbRegAppTableRecord
  2
AcadAnnoMonitorAlertIconDisabled
 70
     0
  0
ENDTAB
  0
TABLE
  2
DIMSTYLE
  5
6103
330
0
100
AcDbSymbolTable
 70
    11
100
AcDbDimStyleTable
 71
     1
340
61AB
  0
DIMSTYLE
105
6150
330
6103
100
AcDbSymbolTableRecord
100
AcDbDimStyleTableRecord
  2
STANDARD
 70
     0
271
     2
272
     2
279
     2
284
     9
285
     9
286
     9
340
614E
  0
DIMSTYLE
105
61AB
330
6103
100
AcDbSymbolTableRecord
100
AcDbDimStyleTableRecord
  2
AM_JIS
 70
     0
  4
"
 40
10.0
 41
2.0
 42
1.0
 43
7.0
 44
1.8
 48
0.000000001
 73
     0
 74
     0
 77
     3
 78
     9
140
3.0
141
1.0
143
0.0393701
146
0.71
147
1.5
172
     1
176
   256
177
   256
178
     4
271
     2
272
     2
279
     2
284
     9
285
     9
286
     9
340
614E
  0
DIMSTYLE
105
61AC
102
{ACAD_REACTORS
330
61EF
102
}
330
6103
100
AcDbSymbolTableRecord
100
AcDbDimStyleTableRecord
  2
AM_ANSI
 70
     0
  4
mm
 40
20.0
 41
0.12
 42
0.05
 43
0.5
 44
0.1
 47
0.1
 48
0.1
 78
     7
140
0.12
141
0.0
146
0.71
147
0.06
176
   256
177
   256
178
     2
271
     2
272
     2
279
     2
284
     9
285
     9
286
     9
340
614E
  0
DIMSTYLE
105
61AD
330
6103
100
AcDbSymbolTableRecord
100
AcDbDimStyleTableRecord
  2
AM_ANSI$3
 70
     0
  4
mm
 41
0.12
 42
0.05
 43
0.5
 44
0.1
 47
0.1
 48
0.1
 78
     7
140
0.12
141
0.0
146
0.71
147
0.06
176
   256
177
   256
178
     2
271
     2
272
     2
279
     2
284
     9
285
     9
286
     9
340
614E
  0
DIMSTYLE
105
61AE
330
6103
100
AcDbSymbolTableRecord
100
AcDbDimStyleTableRecord
  2
AM_ANSI$4
 70
     0
  4
mm
 41
0.12
 42
0.05
 43
0.5
 44
0.1
 47
0.1
 48
0.1
 78
     7
140
0.12
141
0.0
146
0.71
147
0.06
176
   256
177
   256
178
     2
271
     2
272
     2
279
     2
284
     9
285
     9
286
     9
340
614E
  0
DIMSTYLE
105
61AF
330
6103
100
AcDbSymbolTableRecord
100
AcDbDimStyleTableRecord
  2
AM_ANSI$7
 70
     0
  4
mm
 41
0.12
 42
0.05
 43
0.5
 44
0.1
 47
0.1
 48
0.1
 78
     7
140
0.12
141
0.0
146
0.71
147
0.06
176
   256
177
   256
178
     2
271
     2
272
     2
279
     2
284
     9
285
     9
286
     9
340
614E
  0
DIMSTYLE
105
61B0
330
6103
100
AcDbSymbolTableRecord
100
AcDbDimStyleTableRecord
  2
AM_ANSI$SF
 70
     0
  4
mm
 41
0.12
 42
0.05
 43
0.5
 44
0.1
 47
0.1
 48
0.1
 75
     1
 76
     1
 78
     7
140
0.12
141
0.0
146
0.71
147
0.06
176
   256
177
   256
178
     2
271
     2
272
     2
279
     2
284
     9
285
     9
286
     9
340
614E
  0
DIMSTYLE
105
61B1
330
6103
100
AcDbSymbolTableRecord
100
AcDbDimStyleTableRecord
  2
AM_ANSI$SH
 70
     0
  4
mm
 41
0.12
 42
0.05
 43
0.5
 44
0.1
 47
0.1
 48
0.1
 75
     1
 76
     1
 78
     7
140
0.12
141
0.0
146
0.71
147
0.06
173
     1
176
   256
177
   256
178
     2
271
     2
272
     2
279
     2
284
     9
285
     9
286
     9
340
614E
  0
DIMSTYLE
105
61B2
330
6103
100
AcDbSymbolTableRecord
100
AcDbDimStyleTableRecord
  2
AM_ANSI$0
 70
     0
  4
mm
 41
0.12
 42
0.05
 43
0.5
 44
0.1
 47
0.1
 48
0.1
 78
     7
140
0.12
141
0.0
146
0.71
147
0.06
176
   256
177
   256
178
     2
271
     2
272
     2
279
     2
284
     9
285
     9
286
     9
340
614E
  0
ENDTAB
  0
TABLE
  2
BLOCK_RECORD
  5
60FA
330
0
100
AcDbSymbolTable
 70
     7
  0
BLOCK_RECORD
  5
6168
102
{ACAD_XDICTIONARY
360
629D
102
}
330
60FA
100
AcDbSymbolTableRecord
100
AcDbBlockTableRecord
  2
*Model_Space
340
616B
 70
     0
280
     1
281
     0
  0
BLOCK_RECORD
  5
6164
330
60FA
100
AcDbSymbolTableRecord
100
AcDbBlockTableRecord
  2
*Paper_Space
340
6167
 70
     0
280
     1
281
     0
  0
BLOCK_RECORD
  5
61BC
330
60FA
100
AcDbSymbolTableRecord
100
AcDbBlockTableRecord
  2
_OPEN30
340
0
 70
     0
280
     1
281
     0
  0
BLOCK_RECORD
  5
61BE
330
60FA
100
AcDbSymbolTableRecord
100
AcDbBlockTableRecord
  2
_ACMFILLEDHALF
340
0
 70
     0
280
     1
281
     0
  0
ENDTAB
  0
ENDSEC
  0
SECTION
  2
BLOCKS
  0
BLOCK
  5
6169
330
6168
100
AcDbEntity
  8
0
100
AcDbBlockBegin
  2
*Model_Space
 70
     0
 10
0.0
 20
0.0
 30
0.0
  3
*Model_Space
  1

  0
ENDBLK
  5
616A
330
6168
100
AcDbEntity
  8
0
100
AcDbBlockEnd
  0
BLOCK
  5
6165
330
6164
100
AcDbEntity
 67
     1
  8
0
100
AcDbBlockBegin
  2
*Paper_Space
 70
     0
 10
0.0
 20
0.0
 30
0.0
  3
*Paper_Space
  1

  0
ENDBLK
  5
6166
330
6164
100
AcDbEntity
 67
     1
  8
0
100
AcDbBlockEnd
  0
BLOCK
  5
61BD
330
61BC
100
AcDbEntity
  8
0
100
AcDbBlockBegin
  2
_OPEN30
 70
     0
 10
0.0
 20
0.0
 30
0.0
  3
_OPEN30
  1

  0
LINE
  5
3F4D
330
61BC
100
AcDbEntity
  8
0
  6
ByBlock
 62
     0
100
AcDbLine
 10
-1.0
 20
0.26794919
 30
0.0
 11
0.0
 21
0.0
 31
0.0
  0
LINE
  5
3F4E
330
61BC
100
AcDbEntity
  8
0
  6
ByBlock
 62
     0
100
AcDbLine
 10
0.0
 20
0.0
 30
0.0
 11
-1.0
 21
-0.26794919
 31
0.0
  0
LINE
  5
3F4F
330
61BC
100
AcDbEntity
  8
0
  6
ByBlock
 62
     0
100
AcDbLine
 10
0.0
 20
0.0
 30
0.0
 11
-1.0
 21
0.0
 31
0.0
  0
ENDBLK
  5
3F50
330
61BC
100
AcDbEntity
  8
0
100
AcDbBlockEnd
  0
BLOCK
  5
61BF
330
61BE
100
AcDbEntity
  8
0
100
AcDbBlockBegin
  2
_ACMFILLEDHALF
 70
     0
 10
0.0
 20
0.0
 30
0.0
  3
_ACMFILLEDHALF
  1

  0
TRACE
  5
5C7E
330
61BE
100
AcDbEntity
  8
HOJYO
 62
     0
100
AcDbTrace
 10
-0.8
 20
0.0
 30
0.0
 11
-1.0
 21
0.166666666
 31
0.0
 12
0.0
 22
0.0
 32
0.0
 13
0.0
 23
0.0
 33
0.0
  0
LINE
  5
5C7F
330
61BE
100
AcDbEntity
  8
HOJYO
 62
     0
100
AcDbLine
 10
-1.0
 20
0.0
 30
0.0
 11
-0.8
 21
0.0
 31
0.0
  0
ENDBLK
  5
5C80
330
61BE
100
AcDbEntity
  8
0
100
AcDbBlockEnd
  0
ENDSEC
  0
SECTION
  2
ENTITIES
  0
LINE
  5
27DB
330
6168
100
AcDbEntity
  8
0
100
AcDbLine
 10
249.9999554235242
 20
1606.644316398397
 30
0.0
 11
249.9999554235242
 21
1549.661771648906
 31
0.0
  0
LINE
  5
27DE
330
6168
100
AcDbEntity
  8
0
100
AcDbLine
 10
1179.999967612527
 20
1061.82359079358
 30
0.0
 11
379.9999676125383
 21
1061.823681319472
 31
0.0
  0
LINE
  5
27DF
330
6168
100
AcDbEntity
  8
0
100
AcDbLine
 10
1209.999975720021
 20
1121.823582682357
 30
0.0
 11
349.9999757200352
 21
1121.823689430674
 31
0.0
  0
LINE
  5
27E0
330
6168
100
AcDbEntity
  8
0
100
AcDbLine
 10
1179.999967264695
 20
807.8236802828467
 30
0.0
 11
379.9999672747494
 21
807.8235916416735
 31
0.0
  0
LINE
  5
27E1
330
6168
100
AcDbEntity
  8
0
100
AcDbLine
 10
1209.999965343577
 20
747.8236783569266
 30
0.0
 11
349.9999672747494
 21
747.8235916464946
 31
0.0
  0
LINE
  5
27E8
330
6168
100
AcDbEntity
  8
0
100
AcDbLine
 10
548.3580054181817
 20
690.0041492035414
 30
0.0
 11
1017.535276116994
 21
690.0041492035414
 31
0.0
  0
TEXT
  5
2807
330
6168
100
AcDbEntity
  8
0
100
AcDbText
 10
90.0
 20
1348.524841501796
 30
0.0
 40
30.0
  1
＜基礎ボルト位置＞
100
AcDbText
  0
LINE
  5
2809
330
6168
100
AcDbEntity
  8
0
100
AcDbLine
 10
349.9999672747494
 20
747.8235916464946
 30
0.0
 11
349.9999757200352
 21
1121.823689430674
 31
0.0
  0
LINE
  5
280A
330
6168
100
AcDbEntity
  8
0
100
AcDbLine
 10
379.9999672747494
 20
807.8235916416735
 30
0.0
 11
379.9999676125383
 21
1061.823681319472
 31
0.0
  0
LINE
  5
280C
330
6168
100
AcDbEntity
  8
0
100
AcDbLine
 10
508.0641893432249
 20
777.8236029950636
 30
0.0
 11
551.9357452062735
 21
777.8236029950636
 31
0.0
  0
CIRCLE
  5
280D
330
6168
100
AcDbEntity
  8
0
100
AcDbCircle
 10
529.9999672747493
 20
777.8236029950636
 30
0.0
 40
10.0
  0
LINE
  5
280E
330
6168
100
AcDbEntity
  8
0
100
AcDbLine
 10
529.9999672747493
 20
799.7593809265882
 30
0.0
 11
529.9999672747493
 21
755.8878250635406
 31
0.0
  0
LINE
  5
280F
330
6168
100
AcDbEntity
  8
0
100
AcDbLine
 10
534.9273496973721
 20
758.4809023786067
 30
0.0
 11
548.3580054181817
 21
690.0041492035414
 31
0.0
  0
LINE
  5
2810
330
6168
100
AcDbEntity
  8
0
100
AcDbLine
 10
508.0641893432249
 20
1091.823669028745
 30
0.0
 11
551.9357452062735
 21
1091.823669028745
 31
0.0
  0
CIRCLE
  5
2811
330
6168
100
AcDbEntity
  8
0
100
AcDbCircle
 10
529.9999672747493
 20
1091.823669028745
 30
0.0
 40
10.0
  0
LINE
  5
2813
330
6168
100
AcDbEntity
  8
0
100
AcDbLine
 10
529.9999672747493
 20
1069.887891097221
 30
0.0
 11
529.9999672747493
 21
1113.759446960268
 31
0.0
  0
TEXT
  5
2814
330
6168
100
AcDbEntity
  8
0
100
AcDbText
 10
950.0
 20
20.0
 30
0.0
 40
35.0
  1
ABM-235ES2A (耐重塩害仕様)
  7
MONO-SET
100
AcDbText
  0
TEXT
  5
2815
330
6168
100
AcDbEntity
  8
0
100
AcDbText
 10
926.9153104867148
 20
115.0
 30
0.0
 40
35.0
  1
エアコン防振台
  7
MONO-SET
100
AcDbText
  0
TEXT
  5
281B
330
6168
100
AcDbEntity
  8
0
100
AcDbText
 10
723.0583173264609
 20
694.6327678829867
 30
0.0
 40
25.0
  1
＜基礎ボルト穴＞
100
AcDbText
  0
LINE
  5
281C
330
6168
100
AcDbEntity
  8
0
100
AcDbLine
 10
1209.999965343577
 20
747.8236783569266
 30
0.0
 11
1209.999975720021
 21
1121.823582682357
 31
0.0
  0
LINE
  5
281D
330
6168
100
AcDbEntity
  8
0
100
AcDbLine
 10
1179.999967264695
 20
807.8236802828467
 30
0.0
 11
1179.999967612527
 21
1061.823590793579
 31
0.0
  0
LINE
  5
281E
330
6168
100
AcDbEntity
  8
0
100
AcDbLine
 10
1008.064189343225
 20
777.8236689395249
 30
0.0
 11
1051.935745206272
 21
777.8236689395249
 31
0.0
  0
LINE
  5
281F
330
6168
100
AcDbEntity
  8
0
100
AcDbLine
 10
1029.999967274749
 20
799.7594468710496
 30
0.0
 11
1029.999967274749
 21
755.8878910080019
 31
0.0
  0
CIRCLE
  5
2820
330
6168
100
AcDbEntity
  8
0
100
AcDbCircle
 10
1029.999967274749
 20
777.8236689395249
 30
0.0
 40
10.0
  0
LINE
  5
2822
330
6168
100
AcDbEntity
  8
0
100
AcDbLine
 10
1029.999967274749
 20
1069.887825152759
 30
0.0
 11
1029.999967274749
 21
1113.759381015807
 31
0.0
  0
LINE
  5
2823
330
6168
100
AcDbEntity
  8
0
100
AcDbLine
 10
1008.064189343225
 20
1091.823603084284
 30
0.0
 11
1051.935745206272
 21
1091.823603084284
 31
0.0
  0
CIRCLE
  5
2824
330
6168
100
AcDbEntity
  8
0
100
AcDbCircle
 10
1029.999967274749
 20
1091.823603084284
 30
0.0
 40
10.0
  0
LINE
  5
2825
330
6168
100
AcDbEntity
  8
0
100
AcDbLine
 10
1179.999967612527
 20
1057.386286802352
 30
0.0
 11
1179.999967612527
 21
1061.823590793579
 31
0.0
  0
LINE
  5
2826
330
6168
100
AcDbEntity
  8
0
100
AcDbLine
 10
1209.999975720021
 20
1117.323544321895
 30
0.0
 11
1209.999975720021
 21
1121.823582682357
 31
0.0
  0
LINE
  5
287A
330
6168
100
AcDbEntity
  8
0
100
AcDbLine
 10
534.2716598072006
 20
2419.041737607933
 30
0.0
 11
586.693239487297
 21
2529.999973998448
 31
0.0
  0
LINE
  5
287B
330
6168
100
AcDbEntity
  8
0
100
AcDbLine
 10
416.9852813742391
 20
1637.235933378748
 30
0.0
 11
1142.999934549498
 21
1637.23593337875
 31
0.0
  0
LINE
  5
287C
330
6168
100
AcDbEntity
  8
0
100
AcDbLine
 10
417.0000000000004
 20
1747.23593337875
 30
0.0
 11
1142.999934549498
 21
1747.23593337875
 31
0.0
  0
LINE
  5
287D
330
6168
100
AcDbEntity
  8
0
100
AcDbLine
 10
417.0000000000004
 20
1717.235933378749
 30
0.0
 11
1142.999934549498
 21
1717.235933378749
 31
0.0
  0
LINE
  5
287E
330
6168
100
AcDbEntity
  8
0
100
AcDbLine
 10
417.0000000000004
 20
1607.235933378749
 30
0.0
 11
1142.999934549497
 21
1607.235933378747
 31
0.0
  0
LINE
  5
287F
330
6168
100
AcDbEntity
  8
0
100
AcDbLine
 10
1142.99997629755
 20
2056.000037654342
 30
0.0
 11
417.0000000000007
 21
2055.999949012718
 31
0.0
  0
LINE
  5
2880
330
6168
100
AcDbEntity
  8
0
100
AcDbLine
 10
1142.99997629755
 20
2116.000037654332
 30
0.0
 11
417.0000000000004
 21
2115.999949012708
 31
0.0
  0
LINE
  5
2881
330
6168
100
AcDbEntity
  8
0
100
AcDbLine
 10
1142.99997629755
 20
2429.999949101933
 30
0.0
 11
417.0000000000007
 21
2430.000037743555
 31
0.0
  0
LINE
  5
2882
330
6168
100
AcDbEntity
  8
0
100
AcDbLine
 10
1142.99997629755
 20
2369.999949101944
 30
0.0
 11
417.0000000000004
 21
2370.000037743567
 31
0.0
  0
LINE
  5
2883
330
6168
100
AcDbEntity
  8
0
100
AcDbLine
 10
417.0
 20
2363.000064049461
 30
0.0
 11
417.0000000000007
 21
2430.000058133725
 31
0.0
  0
LINE
  5
2884
330
6168
100
AcDbEntity
  8
0
100
AcDbLine
 10
412.5
 20
2367.500064049461
 30
0.0
 11
412.5000000000007
 21
2430.000058133725
 31
0.0
  0
LINE
  5
2885
330
6168
100
AcDbEntity
  8
0
100
AcDbLine
 10
382.0
 20
2427.025935972693
 30
0.0
 11
382.0
 21
2368.974187935448
 31
0.0
  0
ARC
  5
2886
330
6168
100
AcDbEntity
  8
0
100
AcDbCircle
 10
374.0
 20
2406.000020390179
 30
0.0
 40
24.0
100
AcDbArc
 50
90.00004971365942
 51
180.0
  0
CIRCLE
  5
2887
330
6168
100
AcDbEntity
  8
0
100
AcDbCircle
 10
382.0
 20
2398.000061954071
 30
0.0
 40
21.0
  0
CIRCLE
  5
2888
330
6168
100
AcDbEntity
  8
0
100
AcDbCircle
 10
529.9999554235246
 20
2410.000026394981
 30
0.0
 40
6.0
  0
LINE
  5
288C
330
6168
100
AcDbEntity
  8
0
100
AcDbLine
 10
529.9999554235246
 20
2388.064248463454
 30
0.0
 11
529.9999554235246
 21
2431.935804326502
 31
0.0
  0
CIRCLE
  5
288D
330
6168
100
AcDbEntity
  8
0
100
AcDbCircle
 10
382.0
 20
2398.000041563901
 30
0.0
 40
21.0
  0
ARC
  5
288E
330
6168
100
AcDbEntity
  8
0
100
AcDbCircle
 10
374.0
 20
2406.000000000009
 30
0.0
 40
24.0
100
AcDbArc
 50
90.00004971368548
 51
180.0
  0
LINE
  5
288F
330
6168
100
AcDbEntity
  8
0
100
AcDbLine
 10
382.0
 20
2427.025915582523
 30
0.0
 11
382.0
 21
2368.974167545278
 31
0.0
  0
LINE
  5
2890
330
6168
100
AcDbEntity
  8
0
100
AcDbLine
 10
412.5
 20
2367.500043659291
 30
0.0
 11
412.5000000000007
 21
2430.000037743555
 31
0.0
  0
LINE
  5
2891
330
6168
100
AcDbEntity
  8
0
100
AcDbLine
 10
417.0
 20
2363.000043659292
 30
0.0
 11
417.0000000000007
 21
2430.000037743555
 31
0.0
  0
LINE
  5
2896
330
6168
100
AcDbEntity
  8
0
100
AcDbLine
 10
389.973455961378
 20
1666.235933378749
 30
0.0
 11
389.9750925245335
 21
1658.435903378749
 31
0.0
  0
LINE
  5
2897
330
6168
100
AcDbEntity
  8
0
100
AcDbLine
 10
373.9734553849404
 20
1666.235933378749
 30
0.0
 11
373.9750919480957
 21
1658.435903378749
 31
0.0
  0
LINE
  5
2898
330
6168
100
AcDbEntity
  8
0
100
AcDbLine
 10
381.9999999999994
 20
1703.895476681019
 30
0.0
 11
381.9999999999994
 21
1624.61210210823
 31
0.0
  0
ARC
  5
2899
330
6168
100
AcDbEntity
  8
0
100
AcDbCircle
 10
371.6076949999997
 20
1653.345454378749
 30
0.0
 40
5.090450299999996
100
AcDbArc
 50
47.11663999998528
 51
132.8833200000174
  0
ARC
  5
289A
330
6168
100
AcDbEntity
  8
0
100
AcDbCircle
 10
371.6076951545874
 20
1634.200219093035
 30
0.0
 40
3.464285714285712
100
AcDbArc
 50
179.4093113971838
 51
0.590688602816173
  0
ARC
  5
289B
330
6168
100
AcDbEntity
  8
0
100
AcDbCircle
 10
371.6076949999997
 20
1653.526382378749
 30
0.0
 40
5.090450299999996
100
AcDbArc
 50
227.1166899999783
 51
312.8833619999751
  0
LINE
  5
289C
330
6168
100
AcDbEntity
  8
0
100
AcDbLine
 10
417.0000000000004
 20
1607.235933378749
 30
0.0
 11
356.3000000000006
 21
1607.235933378749
 31
0.0
  0
LINE
  5
289D
330
6168
100
AcDbEntity
  8
0
100
AcDbLine
 10
366.9999999999995
 20
1648.43593337875
 30
0.0
 11
396.9999999999996
 21
1648.43593337875
 31
0.0
  0
LINE
  5
289E
330
6168
100
AcDbEntity
  8
0
100
AcDbLine
 10
364.0000000000005
 20
1622.23593337875
 30
0.0
 11
395.0000000000004
 21
1622.23593337875
 31
0.0
  0
LINE
  5
289F
330
6168
100
AcDbEntity
  8
0
100
AcDbLine
 10
350.0
 20
1645.235933378749
 30
0.0
 11
408.4999999999997
 21
1645.23593337875
 31
0.0
  0
LINE
  5
28A0
330
6168
100
AcDbEntity
  8
0
100
AcDbLine
 10
350.0
 20
1640.735933378749
 30
0.0
 11
408.5000000000004
 21
1640.73593337875
 31
0.0
  0
LINE
  5
28A1
330
6168
100
AcDbEntity
  8
0
100
AcDbLine
 10
357.0000000000005
 20
1608.235933378749
 30
0.0
 11
357.0000000000005
 21
1615.23593337875
 31
0.0
  0
ARC
  5
28A2
330
6168
100
AcDbEntity
  8
0
100
AcDbCircle
 10
353.0
 20
1610.235933378748
 30
0.0
 40
3.0
100
AcDbArc
 50
180.0
 51
270.0
  0
ARC
  5
28A3
330
6168
100
AcDbEntity
  8
0
100
AcDbCircle
 10
356.0000000000004
 20
1608.235933378749
 30
0.0
 40
1.0
100
AcDbArc
 50
270.0
 51
0.0
  0
LINE
  5
28A4
330
6168
100
AcDbEntity
  8
0
100
AcDbLine
 10
356.0000000000004
 20
1607.235933378749
 30
0.0
 11
353.0
 21
1607.235933378749
 31
0.0
  0
LINE
  5
28A5
330
6168
100
AcDbEntity
  8
0
100
AcDbLine
 10
368.1435935394493
 20
1640.735933378749
 30
0.0
 11
368.1435935394493
 21
1634.235933378749
 31
0.0
  0
LINE
  5
28A6
330
6168
100
AcDbEntity
  8
0
100
AcDbLine
 10
366.9999999999995
 20
1645.235933378749
 30
0.0
 11
366.9999999999995
 21
1648.43593337875
 31
0.0
  0
LINE
  5
28A7
330
6168
100
AcDbEntity
  8
0
100
AcDbLine
 10
350.0
 20
1610.235933378748
 30
0.0
 11
350.0
 21
1645.235933378749
 31
0.0
  0
ARC
  5
28A8
330
6168
100
AcDbEntity
  8
0
100
AcDbCircle
 10
364.0000000000005
 20
1615.23593337875
 30
0.0
 40
7.0
100
AcDbArc
 50
90.0
 51
180.0
  0
LINE
  5
28A9
330
6168
100
AcDbEntity
  8
0
100
AcDbLine
 10
368.1436059999996
 20
1657.075436378749
 30
0.0
 11
368.1436059999996
 21
1649.796400378749
 31
0.0
  0
LINE
  5
28AA
330
6168
100
AcDbEntity
  8
0
100
AcDbLine
 10
402.0000000000004
 20
1608.235933378749
 30
0.0
 11
402.0000000000004
 21
1615.23593337875
 31
0.0
  0
LINE
  5
28AB
330
6168
100
AcDbEntity
  8
0
100
AcDbLine
 10
412.5000000000004
 20
1607.235933378749
 30
0.0
 11
412.5000000000004
 21
1636.73593337875
 31
0.0
  0
LINE
  5
28AC
330
6168
100
AcDbEntity
  8
0
100
AcDbLine
 10
417.0000000000004
 20
1607.235933378749
 30
0.0
 11
417.0000000000004
 21
1636.73593337875
 31
0.0
  0
ARC
  5
28AD
330
6168
100
AcDbEntity
  8
0
100
AcDbCircle
 10
403.0
 20
1608.235933378749
 30
0.0
 40
1.0
100
AcDbArc
 50
180.0
 51
270.0
  0
ARC
  5
28AE
330
6168
100
AcDbEntity
  8
0
100
AcDbCircle
 10
395.0000000000004
 20
1615.23593337875
 30
0.0
 40
7.0
100
AcDbArc
 50
0.0
 51
90.0
  0
ARC
  5
28AF
330
6168
100
AcDbEntity
  8
0
100
AcDbCircle
 10
392.3922999999995
 20
1653.345454378749
 30
0.0
 40
5.090450299999996
100
AcDbArc
 50
47.11668999997832
 51
132.883370000001
  0
LINE
  5
28B0
330
6168
100
AcDbEntity
  8
0
100
AcDbLine
 10
392.3922999999995
 20
1658.435903378749
 30
0.0
 11
371.6076949999997
 21
1658.435903378749
 31
0.0
  0
ARC
  5
28B1
330
6168
100
AcDbEntity
  8
0
100
AcDbCircle
 10
381.9999999999994
 20
1640.11472337875
 30
0.0
 40
18.321183
100
AcDbArc
 50
67.78071000001779
 51
112.2193300000016
  0
LINE
  5
28B2
330
6168
100
AcDbEntity
  8
0
100
AcDbLine
 10
388.9282032302763
 20
1640.735933378749
 30
0.0
 11
388.9282032302763
 21
1634.235933378749
 31
0.0
  0
LINE
  5
28B3
330
6168
100
AcDbEntity
  8
0
100
AcDbLine
 10
395.8564064605516
 20
1634.235933378749
 30
0.0
 11
395.8564064605516
 21
1640.735933378749
 31
0.0
  0
ARC
  5
28B4
330
6168
100
AcDbEntity
  8
0
100
AcDbCircle
 10
392.3923048454135
 20
1634.200219093035
 30
0.0
 40
3.464285714285712
100
AcDbArc
 50
179.4093113971838
 51
0.590688602816173
  0
LINE
  5
28B5
330
6168
100
AcDbEntity
  8
0
100
AcDbLine
 10
396.9999999999996
 20
1645.23593337875
 30
0.0
 11
396.9999999999996
 21
1648.43593337875
 31
0.0
  0
ARC
  5
28B6
330
6168
100
AcDbEntity
  8
0
100
AcDbCircle
 10
392.3922999999995
 20
1653.526382378749
 30
0.0
 40
5.090450299999996
100
AcDbArc
 50
227.1166399999852
 51
312.883316999979
  0
LINE
  5
28B7
330
6168
100
AcDbEntity
  8
0
100
AcDbLine
 10
390.4999999999994
 20
1645.23593337875
 30
0.0
 11
390.4999999999994
 21
1640.73593337875
 31
0.0
  0
LINE
  5
28B8
330
6168
100
AcDbEntity
  8
0
100
AcDbLine
 10
375.0717967697255
 20
1640.735933378749
 30
0.0
 11
375.0717967697255
 21
1634.235933378749
 31
0.0
  0
LINE
  5
28B9
330
6168
100
AcDbEntity
  8
0
100
AcDbLine
 10
373.4999999999994
 20
1645.235933378749
 30
0.0
 11
373.4999999999994
 21
1640.735933378749
 31
0.0
  0
LINE
  5
28BA
330
6168
100
AcDbEntity
  8
0
100
AcDbLine
 10
371.6076951545874
 20
1630.735933378749
 30
0.0
 11
392.3923048454135
 21
1630.735933378749
 31
0.0
  0
ARC
  5
28BB
330
6168
100
AcDbEntity
  8
0
100
AcDbCircle
 10
382.0000000000009
 20
1639.343076235892
 30
0.0
 40
8.607142857142848
100
AcDbArc
 50
216.3958791981
 51
323.6041208018999
  0
ARC
  5
28BC
330
6168
100
AcDbEntity
  8
0
100
AcDbCircle
 10
381.9999999999994
 20
1666.757106378749
 30
0.0
 40
18.321183
100
AcDbArc
 50
247.7806800000021
 51
292.219299999977
  0
LINE
  5
28BD
330
6168
100
AcDbEntity
  8
0
100
AcDbLine
 10
388.9281899999996
 20
1657.075442378749
 30
0.0
 11
388.9281899999996
 21
1649.796393378749
 31
0.0
  0
LINE
  5
28BE
330
6168
100
AcDbEntity
  8
0
100
AcDbLine
 10
395.8563799999993
 20
1657.075442378749
 30
0.0
 11
395.8563799999993
 21
1649.796393378749
 31
0.0
  0
LINE
  5
28BF
330
6168
100
AcDbEntity
  8
0
100
AcDbLine
 10
375.0717909999994
 20
1657.075442378749
 30
0.0
 11
375.0717909999994
 21
1649.796393378749
 31
0.0
  0
ARC
  5
28C0
330
6168
100
AcDbEntity
  8
0
100
AcDbCircle
 10
408.4999999999997
 20
1636.73593337875
 30
0.0
 40
4.0
100
AcDbArc
 50
0.0
 51
90.0
  0
ARC
  5
28C1
330
6168
100
AcDbEntity
  8
0
100
AcDbCircle
 10
408.5000000000004
 20
1636.73593337875
 30
0.0
 40
8.5
100
AcDbArc
 50
0.0
 51
90.0
  0
ARC
  5
28C2
330
6168
100
AcDbEntity
  8
0
100
AcDbCircle
 10
371.6077063953053
 20
1689.145467378749
 30
0.0
 40
5.090450299999996
100
AcDbArc
 50
47.11663999998528
 51
132.8833200000174
  0
LINE
  5
28C3
330
6168
100
AcDbEntity
  8
0
100
AcDbLine
 10
359.0000000000005
 20
1720.53593337875
 30
0.0
 11
371.8660687473189
 21
1720.53593337875
 31
0.0
  0
ARC
  5
28C4
330
6168
100
AcDbEntity
  8
0
100
AcDbCircle
 10
357.0000000000005
 20
1720.53593337875
 30
0.0
 40
17.0
100
AcDbArc
 50
7.662255660759055
 51
82.33774433924118
  0
LINE
  5
28C5
330
6168
100
AcDbEntity
  8
0
100
AcDbLine
 10
417.0000000000004
 20
1747.23593337875
 30
0.0
 11
350.0
 21
1747.23593337875
 31
0.0
  0
LINE
  5
28C6
330
6168
100
AcDbEntity
  8
0
100
AcDbLine
 10
360.4999999999994
 20
1673.73593337875
 30
0.0
 11
381.9999999999994
 21
1673.735933378749
 31
0.0
  0
LINE
  5
28C7
330
6168
100
AcDbEntity
  8
0
100
AcDbLine
 10
350.0
 20
1677.23593337875
 30
0.0
 11
381.9999999999994
 21
1677.235933378749
 31
0.0
  0
LINE
  5
28C8
330
6168
100
AcDbEntity
  8
0
100
AcDbLine
 10
350.0
 20
1681.73593337875
 30
0.0
 11
381.9999999999994
 21
1681.735933378748
 31
0.0
  0
LINE
  5
28C9
330
6168
100
AcDbEntity
  8
0
100
AcDbLine
 10
361.9999999999996
 20
1666.235933378749
 30
0.0
 11
381.9999999999994
 21
1666.235933378749
 31
0.0
  0
LINE
  5
28CA
330
6168
100
AcDbEntity
  8
0
100
AcDbLine
 10
350.0
 20
1747.23593337875
 30
0.0
 11
350.0
 21
1677.23593337875
 31
0.0
  0
ARC
  5
28CB
330
6168
100
AcDbEntity
  8
0
100
AcDbCircle
 10
359.0000000000005
 20
1722.53593337875
 30
0.0
 40
2.0
100
AcDbArc
 50
180.0
 51
270.0
  0
LINE
  5
28CC
330
6168
100
AcDbEntity
  8
0
100
AcDbLine
 10
368.1436163953057
 20
1692.875455378749
 30
0.0
 11
368.1436163953057
 21
1681.735933378748
 31
0.0
  0
LINE
  5
28CD
330
6168
100
AcDbEntity
  8
0
100
AcDbLine
 10
360.4999999999994
 20
1673.73593337875
 30
0.0
 11
360.4999999999994
 21
1666.235933378749
 31
0.0
  0
LINE
  5
28CE
330
6168
100
AcDbEntity
  8
0
100
AcDbLine
 10
360.4999999999994
 20
1666.235933378749
 30
0.0
 11
361.9999999999996
 21
1666.235933378749
 31
0.0
  0
ARC
  5
28CF
330
6168
100
AcDbEntity
  8
0
100
AcDbCircle
 10
359.0000000000005
 20
1735.402002126068
 30
0.0
 40
2.0
100
AcDbArc
 50
82.33774433924118
 51
180.0
  0
LINE
  5
28D0
330
6168
100
AcDbEntity
  8
0
100
AcDbLine
 10
357.0000000000005
 20
1722.53593337875
 30
0.0
 11
357.0000000000005
 21
1735.402002126068
 31
0.0
  0
ARC
  5
28D1
330
6168
100
AcDbEntity
  8
0
100
AcDbCircle
 10
392.133931252682
 20
1722.53593337875
 30
0.0
 40
2.0
100
AcDbArc
 50
172.3377443392409
 51
270.0
  0
ARC
  5
28D2
330
6168
100
AcDbEntity
  8
0
100
AcDbCircle
 10
405.0000000000007
 20
1722.53593337875
 30
0.0
 40
2.0
100
AcDbArc
 50
270.0
 51
0.0
  0
LINE
  5
28D3
330
6168
100
AcDbEntity
  8
0
100
AcDbLine
 10
412.5000000000004
 20
1747.23593337875
 30
0.0
 11
412.5000000000004
 21
1684.735933378749
 31
0.0
  0
LINE
  5
28D4
330
6168
100
AcDbEntity
  8
0
100
AcDbLine
 10
417.0000000000004
 20
1747.23593337875
 30
0.0
 11
417.0000000000004
 21
1684.735933378749
 31
0.0
  0
ARC
  5
28D5
330
6168
100
AcDbEntity
  8
0
100
AcDbCircle
 10
371.8660687473189
 20
1722.53593337875
 30
0.0
 40
2.0
100
AcDbArc
 50
270.0
 51
7.662255660759055
  0
LINE
  5
28D6
330
6168
100
AcDbEntity
  8
0
100
AcDbLine
 10
381.9999999999994
 20
1681.73593337875
 30
0.0
 11
409.4999999999997
 21
1681.735933378748
 31
0.0
  0
LINE
  5
28D7
330
6168
100
AcDbEntity
  8
0
100
AcDbLine
 10
381.9999999999994
 20
1677.23593337875
 30
0.0
 11
409.4999999999992
 21
1677.235933378749
 31
0.0
  0
LINE
  5
28D8
330
6168
100
AcDbEntity
  8
0
100
AcDbLine
 10
381.9999999999994
 20
1673.73593337875
 30
0.0
 11
403.4999999999993
 21
1673.73593337875
 31
0.0
  0
LINE
  5
28D9
330
6168
100
AcDbEntity
  8
0
100
AcDbLine
 10
381.9999999999994
 20
1666.235933378749
 30
0.0
 11
401.9999999999994
 21
1666.235933378749
 31
0.0
  0
LINE
  5
28DA
330
6168
100
AcDbEntity
  8
0
100
AcDbLine
 10
405.0000000000007
 20
1720.53593337875
 30
0.0
 11
392.133931252682
 21
1720.53593337875
 31
0.0
  0
LINE
  5
28DB
330
6168
100
AcDbEntity
  8
0
100
AcDbLine
 10
395.8564063953054
 20
1692.875455378749
 30
0.0
 11
395.8564063953054
 21
1681.735933378748
 31
0.0
  0
LINE
  5
28DC
330
6168
100
AcDbEntity
  8
0
100
AcDbLine
 10
388.9282163953057
 20
1692.875455378749
 30
0.0
 11
388.9282163953057
 21
1681.735933378748
 31
0.0
  0
ARC
  5
28DD
330
6168
100
AcDbEntity
  8
0
100
AcDbCircle
 10
392.3923163953059
 20
1689.145467378749
 30
0.0
 40
5.090450299999996
100
AcDbArc
 50
47.11668999997832
 51
132.883370000001
  0
LINE
  5
28DE
330
6168
100
AcDbEntity
  8
0
100
AcDbLine
 10
393.8000000000002
 20
1673.73593337875
 30
0.0
 11
393.8000000000002
 21
1677.235933378749
 31
0.0
  0
LINE
  5
28DF
330
6168
100
AcDbEntity
  8
0
100
AcDbLine
 10
375.0717963953057
 20
1692.875455378749
 30
0.0
 11
375.0717963953057
 21
1681.735933378748
 31
0.0
  0
LINE
  5
28E0
330
6168
100
AcDbEntity
  8
0
100
AcDbLine
 10
370.2000000000007
 20
1673.735933378749
 30
0.0
 11
370.1999999999999
 21
1677.235933378749
 31
0.0
  0
LINE
  5
28E1
330
6168
100
AcDbEntity
  8
0
100
AcDbLine
 10
392.3923163953059
 20
1694.235916378749
 30
0.0
 11
371.6077063953053
 21
1694.235916378749
 31
0.0
  0
ARC
  5
28E2
330
6168
100
AcDbEntity
  8
0
100
AcDbCircle
 10
382.0000063953056
 20
1675.914753378749
 30
0.0
 40
18.321183
100
AcDbArc
 50
67.78071000001779
 51
112.2193300000016
  0
LINE
  5
28E3
330
6168
100
AcDbEntity
  8
0
100
AcDbLine
 10
401.9999999999994
 20
1666.235933378749
 30
0.0
 11
403.4999999999993
 21
1666.235933378749
 31
0.0
  0
LINE
  5
28E4
330
6168
100
AcDbEntity
  8
0
100
AcDbLine
 10
403.4999999999993
 20
1673.73593337875
 30
0.0
 11
403.4999999999993
 21
1666.235933378749
 31
0.0
  0
ARC
  5
28E5
330
6168
100
AcDbEntity
  8
0
100
AcDbCircle
 10
409.4999999999997
 20
1684.735933378749
 30
0.0
 40
3.0
100
AcDbArc
 50
270.0
 51
0.0
  0
ARC
  5
28E6
330
6168
100
AcDbEntity
  8
0
100
AcDbCircle
 10
409.4999999999997
 20
1684.735933378749
 30
0.0
 40
7.5
100
AcDbArc
 50
270.0
 51
0.0
  0
ARC
  5
28E7
330
6168
100
AcDbEntity
  8
0
100
AcDbCircle
 10
407.0000000000008
 20
1720.53593337875
 30
0.0
 40
17.0
100
AcDbArc
 50
97.66225566075881
 51
172.3377443392409
  0
ARC
  5
28E8
330
6168
100
AcDbEntity
  8
0
100
AcDbCircle
 10
405.0000000000004
 20
1735.402002126068
 30
0.0
 40
2.0
100
AcDbArc
 50
0.0
 51
97.66225566075881
  0
LINE
  5
28E9
330
6168
100
AcDbEntity
  8
0
100
AcDbLine
 10
407.0000000000008
 20
1722.53593337875
 30
0.0
 11
407.0
 21
1735.402002126068
 31
0.0
  0
LINE
  5
28EA
330
6168
100
AcDbEntity
  8
0
100
AcDbLine
 10
529.9999345494982
 20
1649.357208438922
 30
0.0
 11
529.9999345494982
 21
1593.162510738054
 31
0.0
  0
LINE
  5
28EB
330
6168
100
AcDbEntity
  8
0
100
AcDbLine
 10
529.9999345494982
 20
1760.48863736809
 30
0.0
 11
529.9999345494982
 21
1704.293939667223
 31
0.0
  0
LINE
  5
28EF
330
6168
100
AcDbEntity
  8
0
100
AcDbLine
 10
379.9999554235248
 20
2123.000031738607
 30
0.0
 11
379.9999554235248
 21
2362.999955017667
 31
0.0
  0
LINE
  5
28F0
330
6168
100
AcDbEntity
  8
0
100
AcDbLine
 10
349.9999554235246
 20
2123.000031738607
 30
0.0
 11
349.9999554235246
 21
2362.999955017667
 31
0.0
  0
ARC
  5
28F1
330
6168
100
AcDbEntity
  8
0
100
AcDbCircle
 10
374.0
 20
2080.000164039513
 30
0.0
 40
24.0
100
AcDbArc
 50
180.0
 51
269.9999502863145
  0
LINE
  5
28F3
330
6168
100
AcDbEntity
  8
0
100
AcDbLine
 10
411.0258740186226
 20
2088.000122475619
 30
0.0
 11
352.9741259813783
 21
2088.000122475619
 31
0.0
  0
LINE
  5
28F4
330
6168
100
AcDbEntity
  8
0
100
AcDbLine
 10
350.0
 20
2118.500120380231
 30
0.0
 11
417.0
 21
2118.500120380231
 31
0.0
  0
LINE
  5
28F5
330
6168
100
AcDbEntity
  8
0
100
AcDbLine
 10
350.0
 20
2123.00012038023
 30
0.0
 11
417.0
 21
2123.00012038023
 31
0.0
  0
CIRCLE
  5
28F6
330
6168
100
AcDbEntity
  8
0
100
AcDbCircle
 10
382.0
 20
2088.000122475619
 30
0.0
 40
21.0
  0
LINE
  5
28F7
330
6168
100
AcDbEntity
  8
0
100
AcDbLine
 10
350.0
 20
2079.500164039512
 30
0.0
 11
350.0
 21
2123.00012038023
 31
0.0
  0
LINE
  5
28F8
330
6168
100
AcDbEntity
  8
0
100
AcDbLine
 10
382.0
 20
2058.974248456999
 30
0.0
 11
382.0
 21
2117.025996494243
 31
0.0
  0
LINE
  5
28F9
330
6168
100
AcDbEntity
  8
0
100
AcDbLine
 10
417.0
 20
2123.00012038023
 30
0.0
 11
417.0000000000007
 21
2056.000126295966
 31
0.0
  0
LINE
  5
28FA
330
6168
100
AcDbEntity
  8
0
100
AcDbLine
 10
412.5
 20
2118.500120380231
 30
0.0
 11
412.5000000000007
 21
2056.000126295966
 31
0.0
  0
LINE
  5
28FB
330
6168
100
AcDbEntity
  8
0
100
AcDbLine
 10
373.4999791759792
 20
2056.000164039522
 30
0.0
 11
417.0000000000007
 21
2056.000126295966
 31
0.0
  0
LINE
  5
28FC
330
6168
100
AcDbEntity
  8
0
100
AcDbLine
 10
508.0641774920001
 20
2075.999960361297
 30
0.0
 11
551.9357333550479
 21
2075.999960361297
 31
0.0
  0
CIRCLE
  5
28FD
330
6168
100
AcDbEntity
  8
0
100
AcDbCircle
 10
529.9999554235246
 20
2075.999960361297
 30
0.0
 40
6.0
  0
LINE
  5
28FE
330
6168
100
AcDbEntity
  8
0
100
AcDbLine
 10
529.9999554235246
 20
2097.935738292822
 30
0.0
 11
529.9999554235246
 21
2054.064182429774
 31
0.0
  0
LINE
  5
28FF
330
6168
100
AcDbEntity
  8
0
100
AcDbLine
 10
350.0
 20
2367.500064049461
 30
0.0
 11
417.0
 21
2367.500064049461
 31
0.0
  0
LINE
  5
2900
330
6168
100
AcDbEntity
  8
0
100
AcDbLine
 10
350.0
 20
2363.000064049461
 30
0.0
 11
417.0
 21
2363.000064049461
 31
0.0
  0
LINE
  5
2902
330
6168
100
AcDbEntity
  8
0
100
AcDbLine
 10
411.0258740186226
 20
2398.000061954071
 30
0.0
 11
352.9741259813783
 21
2398.000061954071
 31
0.0
  0
LINE
  5
2903
330
6168
100
AcDbEntity
  8
0
100
AcDbLine
 10
411.0258740186226
 20
2398.000041563901
 30
0.0
 11
352.9741259813783
 21
2398.000041563901
 31
0.0
  0
LINE
  5
2905
330
6168
100
AcDbEntity
  8
0
100
AcDbLine
 10
350.0
 20
2363.000043659292
 30
0.0
 11
417.0
 21
2363.000043659292
 31
0.0
  0
LINE
  5
2906
330
6168
100
AcDbEntity
  8
0
100
AcDbLine
 10
350.0
 20
2367.500043659291
 30
0.0
 11
417.0
 21
2367.500043659291
 31
0.0
  0
LINE
  5
2907
330
6168
100
AcDbEntity
  8
0
100
AcDbLine
 10
350.0
 20
2406.000020390179
 30
0.0
 11
350.0
 21
2363.000064049461
 31
0.0
  0
LINE
  5
2908
330
6168
100
AcDbEntity
  8
0
100
AcDbLine
 10
350.0
 20
2406.500000000009
 30
0.0
 11
350.0
 21
2363.000043659292
 31
0.0
  0
LINE
  5
2909
330
6168
100
AcDbEntity
  8
0
100
AcDbLine
 10
508.0641774920001
 20
2410.000026394981
 30
0.0
 11
551.9357333550479
 21
2410.000026394981
 31
0.0
  0
TEXT
  5
290A
330
6168
100
AcDbEntity
  8
0
100
AcDbText
 10
90.0
 20
2680.0
 30
0.0
 40
30.0
  1
＜外形寸法図＞
100
AcDbText
  0
LINE
  5
290C
330
6168
100
AcDbEntity
  8
0
100
AcDbLine
 10
373.9999791759919
 20
2430.000020824004
 30
0.0
 11
417.0000000000007
 21
2430.000058133725
 31
0.0
  0
LINE
  5
290D
330
6168
100
AcDbEntity
  8
0
100
AcDbLine
 10
373.4999791759792
 20
2430.0
 30
0.0
 11
417.0000000000007
 21
2430.000037743555
 31
0.0
  0
CIRCLE
  5
290F
330
6168
100
AcDbEntity
  8
0
100
AcDbCircle
 10
1030.000020874026
 20
2410.000026394981
 30
0.0
 40
6.0
  0
CIRCLE
  5
2910
330
6168
100
AcDbEntity
  8
0
100
AcDbCircle
 10
1177.99997629755
 20
2397.999952922278
 30
0.0
 40
21.0
  0
ARC
  5
2911
330
6168
100
AcDbEntity
  8
0
100
AcDbCircle
 10
1185.99997629755
 20
2405.999911358386
 30
0.0
 40
24.0
100
AcDbArc
 50
0.0
 51
89.99995028631451
  0
LINE
  5
2912
330
6168
100
AcDbEntity
  8
0
100
AcDbLine
 10
1177.99997629755
 20
2427.0258269409
 30
0.0
 11
1177.99997629755
 21
2368.974078903656
 31
0.0
  0
LINE
  5
2913
330
6168
100
AcDbEntity
  8
0
100
AcDbLine
 10
1142.99997629755
 20
2362.999955017667
 30
0.0
 11
1142.99997629755
 21
2429.999949101933
 31
0.0
  0
LINE
  5
2914
330
6168
100
AcDbEntity
  8
0
100
AcDbLine
 10
1147.49997629755
 20
2367.499955017667
 30
0.0
 11
1147.49997629755
 21
2429.999949101933
 31
0.0
  0
LINE
  5
2915
330
6168
100
AcDbEntity
  8
0
100
AcDbLine
 10
1029.999955423524
 20
2388.064182518993
 30
0.0
 11
1029.999955423524
 21
2431.935738382041
 31
0.0
  0
LINE
  5
2918
330
6168
100
AcDbEntity
  8
0
100
AcDbLine
 10
1008.064177492
 20
2409.999960450516
 30
0.0
 11
1051.935733355048
 21
2409.999960450516
 31
0.0
  0
LINE
  5
2919
330
6168
100
AcDbEntity
  8
0
100
AcDbLine
 10
1008.064177492
 20
2076.000026305759
 30
0.0
 11
1051.935733355048
 21
2076.000026305759
 31
0.0
  0
TEXT
  5
291A
330
6168
100
AcDbEntity
  8
0
100
AcDbText
 10
956.4509488724704
 20
1779.73593337875
 30
0.0
 40
25.0
  1
「製品銘板」ラベル
100
AcDbText
  0
LINE
  5
291B
330
6168
100
AcDbEntity
  8
0
100
AcDbLine
 10
609.4888485809319
 20
1637.235933378749
 30
0.0
 11
1142.999934549498
 21
1637.235933378749
 31
0.0
  0
LINE
  5
291C
330
6168
100
AcDbEntity
  8
0
100
AcDbLine
 10
659.9999672747493
 20
1742.23593337875
 30
0.0
 11
899.9999672747494
 21
1742.23593337875
 31
0.0
  0
LINE
  5
291D
330
6168
100
AcDbEntity
  8
0
100
AcDbLine
 10
659.9999672747493
 20
1722.235933378749
 30
0.0
 11
899.9999672747494
 21
1722.235933378749
 31
0.0
  0
LINE
  5
2920
330
6168
100
AcDbEntity
  8
0
100
AcDbLine
 10
586.9888485809316
 20
1637.235933378749
 30
0.0
 11
682.9999345494983
 21
1637.235933378749
 31
0.0
  0
LINE
  5
2921
330
6168
100
AcDbEntity
  8
0
100
AcDbLine
 10
659.9999672747493
 20
1742.23593337875
 30
0.0
 11
659.9999672747493
 21
1722.235933378749
 31
0.0
  0
LINE
  5
2922
330
6168
100
AcDbEntity
  8
0
100
AcDbLine
 10
909.9999672747495
 20
1759.556441454439
 30
0.0
 11
928.8674807342307
 21
1792.23593337875
 31
0.0
  0
LINE
  5
2924
330
6168
100
AcDbEntity
  8
0
100
AcDbLine
 10
899.9999672747494
 20
1742.23593337875
 30
0.0
 11
899.9999672747494
 21
1722.235933378749
 31
0.0
  0
LINE
  5
2946
330
6168
100
AcDbEntity
  8
0
100
AcDbLine
 10
928.8674807342307
 20
1792.23593337875
 30
0.0
 11
946.5976788425535
 21
1792.23593337875
 31
0.0
  0
LINE
  5
294A
330
6168
100
AcDbEntity
  8
0
100
AcDbLine
 10
1177.999934549499
 20
1681.73593337875
 30
0.0
 11
1150.499934549499
 21
1681.735933378748
 31
0.0
  0
LINE
  5
294B
330
6168
100
AcDbEntity
  8
0
100
AcDbLine
 10
1177.999934549499
 20
1677.23593337875
 30
0.0
 11
1150.499934549499
 21
1677.235933378749
 31
0.0
  0
ARC
  5
294C
330
6168
100
AcDbEntity
  8
0
100
AcDbCircle
 10
1167.607618154193
 20
1689.145467378749
 30
0.0
 40
5.090450299999996
100
AcDbArc
 50
47.11662999999901
 51
132.8833100000217
  0
LINE
  5
294D
330
6168
100
AcDbEntity
  8
0
100
AcDbLine
 10
1177.999934549499
 20
1673.73593337875
 30
0.0
 11
1156.499934549499
 21
1673.73593337875
 31
0.0
  0
LINE
  5
294E
330
6168
100
AcDbEntity
  8
0
100
AcDbLine
 10
1177.999934549499
 20
1666.235933378749
 30
0.0
 11
1157.999934549499
 21
1666.235933378749
 31
0.0
  0
ARC
  5
294F
330
6168
100
AcDbEntity
  8
0
100
AcDbCircle
 10
1167.607634549499
 20
1653.345454378749
 30
0.0
 40
5.090450299999996
100
AcDbArc
 50
47.11662999999901
 51
132.8833100000217
  0
ARC
  5
2950
330
6168
100
AcDbEntity
  8
0
100
AcDbCircle
 10
1167.866003296817
 20
1722.53593337875
 30
0.0
 40
2.0
100
AcDbArc
 50
270.0
 51
7.662255660759049
  0
ARC
  5
2951
330
6168
100
AcDbEntity
  8
0
100
AcDbCircle
 10
1152.999934549498
 20
1720.53593337875
 30
0.0
 40
17.0
100
AcDbArc
 50
7.662255660759049
 51
82.33774433924118
  0
LINE
  5
2952
330
6168
100
AcDbEntity
  8
0
100
AcDbLine
 10
1142.999934549498
 20
1747.23593337875
 30
0.0
 11
1209.999934549499
 21
1747.23593337875
 31
0.0
  0
LINE
  5
2953
330
6168
100
AcDbEntity
  8
0
100
AcDbLine
 10
1167.607618154193
 20
1694.235916378749
 30
0.0
 11
1188.392228154194
 21
1694.235916378749
 31
0.0
  0
LINE
  5
2954
330
6168
100
AcDbEntity
  8
0
100
AcDbLine
 10
1167.607634549499
 20
1658.435903378749
 30
0.0
 11
1188.392239549499
 21
1658.435903378749
 31
0.0
  0
ARC
  5
2955
330
6168
100
AcDbEntity
  8
0
100
AcDbCircle
 10
1167.607629704084
 20
1634.200219093035
 30
0.0
 40
3.464285714285712
100
AcDbArc
 50
179.4093113971838
 51
0.5906886028161731
  0
ARC
  5
2956
330
6168
100
AcDbEntity
  8
0
100
AcDbCircle
 10
1167.607634549499
 20
1653.526382378749
 30
0.0
 40
5.090450299999996
100
AcDbArc
 50
227.1166830000209
 51
312.8833600000124
  0
LINE
  5
2957
330
6168
100
AcDbEntity
  8
0
100
AcDbLine
 10
1142.999934549498
 20
1607.235933378749
 30
0.0
 11
1203.699934549498
 21
1607.235933378749
 31
0.0
  0
LINE
  5
2958
330
6168
100
AcDbEntity
  8
0
100
AcDbLine
 10
1188.392239394911
 20
1630.735933378749
 30
0.0
 11
1167.607629704084
 21
1630.735933378749
 31
0.0
  0
LINE
  5
2959
330
6168
100
AcDbEntity
  8
0
100
AcDbLine
 10
1192.999934549499
 20
1648.43593337875
 30
0.0
 11
1162.999934549499
 21
1648.43593337875
 31
0.0
  0
LINE
  5
295A
330
6168
100
AcDbEntity
  8
0
100
AcDbLine
 10
1195.999934549498
 20
1622.23593337875
 30
0.0
 11
1164.999934549498
 21
1622.23593337875
 31
0.0
  0
LINE
  5
295B
330
6168
100
AcDbEntity
  8
0
100
AcDbLine
 10
1209.999934549499
 20
1645.235933378749
 30
0.0
 11
1151.499934549499
 21
1645.23593337875
 31
0.0
  0
LINE
  5
295C
330
6168
100
AcDbEntity
  8
0
100
AcDbLine
 10
1209.999934549499
 20
1640.735933378749
 30
0.0
 11
1151.499934549498
 21
1640.73593337875
 31
0.0
  0
LINE
  5
295E
330
6168
100
AcDbEntity
  8
0
100
AcDbLine
 10
1029.999934549498
 20
1649.357274383383
 30
0.0
 11
1029.999934549498
 21
1591.930268454041
 31
0.0
  0
LINE
  5
295F
330
6168
100
AcDbEntity
  8
0
100
AcDbLine
 10
1157.999934549498
 20
1608.235933378749
 30
0.0
 11
1157.999934549498
 21
1615.23593337875
 31
0.0
  0
LINE
  5
2960
330
6168
100
AcDbEntity
  8
0
100
AcDbLine
 10
1147.499934549498
 20
1607.235933378749
 30
0.0
 11
1147.499934549498
 21
1636.73593337875
 31
0.0
  0
LINE
  5
2961
330
6168
100
AcDbEntity
  8
0
100
AcDbLine
 10
1142.999934549498
 20
1607.235933378749
 30
0.0
 11
1142.999934549498
 21
1636.73593337875
 31
0.0
  0
ARC
  5
2962
330
6168
100
AcDbEntity
  8
0
100
AcDbCircle
 10
1156.999934549498
 20
1608.235933378749
 30
0.0
 40
1.0
100
AcDbArc
 50
270.0
 51
0.0
  0
ARC
  5
2963
330
6168
100
AcDbEntity
  8
0
100
AcDbCircle
 10
1151.499934549499
 20
1636.73593337875
 30
0.0
 40
4.0
100
AcDbArc
 50
90.0
 51
180.0
  0
ARC
  5
2964
330
6168
100
AcDbEntity
  8
0
100
AcDbCircle
 10
1151.499934549498
 20
1636.73593337875
 30
0.0
 40
8.5
100
AcDbArc
 50
90.0
 51
180.0
  0
LINE
  5
2965
330
6168
100
AcDbEntity
  8
0
100
AcDbLine
 10
1164.143528088946
 20
1634.235933378749
 30
0.0
 11
1164.143528088946
 21
1640.735933378749
 31
0.0
  0
LINE
  5
2966
330
6168
100
AcDbEntity
  8
0
100
AcDbLine
 10
1162.999934549499
 20
1645.23593337875
 30
0.0
 11
1162.999934549499
 21
1648.43593337875
 31
0.0
  0
ARC
  5
2967
330
6168
100
AcDbEntity
  8
0
100
AcDbCircle
 10
1164.999934549498
 20
1615.23593337875
 30
0.0
 40
7.0
100
AcDbArc
 50
90.0
 51
180.0
  0
LINE
  5
2968
330
6168
100
AcDbEntity
  8
0
100
AcDbLine
 10
1164.143554549499
 20
1657.075442378749
 30
0.0
 11
1164.143554549499
 21
1649.796393378749
 31
0.0
  0
LINE
  5
2969
330
6168
100
AcDbEntity
  8
0
100
AcDbLine
 10
1029.999934549498
 20
1760.488703312551
 30
0.0
 11
1029.999934549498
 21
1703.06169738321
 31
0.0
  0
ARC
  5
296A
330
6168
100
AcDbEntity
  8
0
100
AcDbCircle
 10
1154.999934549498
 20
1722.53593337875
 30
0.0
 40
2.0
100
AcDbArc
 50
180.0
 51
270.0
  0
LINE
  5
296B
330
6168
100
AcDbEntity
  8
0
100
AcDbLine
 10
1147.499934549498
 20
1747.23593337875
 30
0.0
 11
1147.499934549498
 21
1684.735933378749
 31
0.0
  0
LINE
  5
296C
330
6168
100
AcDbEntity
  8
0
100
AcDbLine
 10
1142.999934549498
 20
1747.23593337875
 30
0.0
 11
1142.999934549498
 21
1684.735933378749
 31
0.0
  0
LINE
  5
296D
330
6168
100
AcDbEntity
  8
0
100
AcDbLine
 10
1164.143528154194
 20
1692.875455378749
 30
0.0
 11
1164.143528154194
 21
1681.735933378748
 31
0.0
  0
LINE
  5
296E
330
6168
100
AcDbEntity
  8
0
100
AcDbLine
 10
1166.199934549499
 20
1673.73593337875
 30
0.0
 11
1166.199934549499
 21
1677.235933378749
 31
0.0
  0
LINE
  5
296F
330
6168
100
AcDbEntity
  8
0
100
AcDbLine
 10
1157.999934549499
 20
1666.235933378749
 30
0.0
 11
1156.499934549499
 21
1666.235933378749
 31
0.0
  0
LINE
  5
2970
330
6168
100
AcDbEntity
  8
0
100
AcDbLine
 10
1156.499934549499
 20
1673.73593337875
 30
0.0
 11
1156.499934549499
 21
1666.235933378749
 31
0.0
  0
LINE
  5
2971
330
6168
100
AcDbEntity
  8
0
100
AcDbLine
 10
1154.999934549498
 20
1720.53593337875
 30
0.0
 11
1167.866003296817
 21
1720.53593337875
 31
0.0
  0
ARC
  5
2972
330
6168
100
AcDbEntity
  8
0
100
AcDbCircle
 10
1150.499934549499
 20
1684.735933378749
 30
0.0
 40
3.0
100
AcDbArc
 50
180.0
 51
270.0
  0
ARC
  5
2973
330
6168
100
AcDbEntity
  8
0
100
AcDbCircle
 10
1150.499934549499
 20
1684.735933378749
 30
0.0
 40
7.5
100
AcDbArc
 50
180.0
 51
270.0
  0
ARC
  5
2974
330
6168
100
AcDbEntity
  8
0
100
AcDbCircle
 10
1154.999934549498
 20
1735.402002126068
 30
0.0
 40
2.0
100
AcDbArc
 50
82.33774433924118
 51
180.0
  0
LINE
  5
2975
330
6168
100
AcDbEntity
  8
0
100
AcDbLine
 10
1152.999934549498
 20
1722.53593337875
 30
0.0
 11
1152.999934549498
 21
1735.402002126068
 31
0.0
  0
LINE
  5
2976
330
6168
100
AcDbEntity
  8
0
100
AcDbLine
 10
1170.026478588121
 20
1666.235933378749
 30
0.0
 11
1170.024842024965
 21
1658.435903378749
 31
0.0
  0
LINE
  5
2977
330
6168
100
AcDbEntity
  8
0
100
AcDbLine
 10
1186.026479164558
 20
1666.235933378749
 30
0.0
 11
1186.024842601403
 21
1658.435903378749
 31
0.0
  0
LINE
  5
2978
330
6168
100
AcDbEntity
  8
0
100
AcDbLine
 10
1177.999934549499
 20
1703.895476681019
 30
0.0
 11
1177.999934549499
 21
1624.61210210823
 31
0.0
  0
LINE
  5
2979
330
6168
100
AcDbEntity
  8
0
100
AcDbLine
 10
1202.999934549498
 20
1608.235933378749
 30
0.0
 11
1202.999934549498
 21
1615.23593337875
 31
0.0
  0
ARC
  5
297A
330
6168
100
AcDbEntity
  8
0
100
AcDbCircle
 10
1206.999934549499
 20
1610.235933378748
 30
0.0
 40
3.0
100
AcDbArc
 50
270.0
 51
0.0
  0
ARC
  5
297B
330
6168
100
AcDbEntity
  8
0
100
AcDbCircle
 10
1203.999934549498
 20
1608.235933378749
 30
0.0
 40
1.0
100
AcDbArc
 50
180.0
 51
270.0
  0
LINE
  5
297C
330
6168
100
AcDbEntity
  8
0
100
AcDbLine
 10
1203.999934549498
 20
1607.235933378749
 30
0.0
 11
1206.999934549499
 21
1607.235933378749
 31
0.0
  0
ARC
  5
297D
330
6168
100
AcDbEntity
  8
0
100
AcDbCircle
 10
1195.999934549498
 20
1615.23593337875
 30
0.0
 40
7.0
100
AcDbArc
 50
0.0
 51
90.0
  0
ARC
  5
297E
330
6168
100
AcDbEntity
  8
0
100
AcDbCircle
 10
1188.392239549499
 20
1653.345454378749
 30
0.0
 40
5.090450299999996
100
AcDbArc
 50
47.11667999998017
 51
132.8833600000123
  0
ARC
  5
297F
330
6168
100
AcDbEntity
  8
0
100
AcDbCircle
 10
1177.999934549499
 20
1640.11472337875
 30
0.0
 40
18.321183
100
AcDbArc
 50
67.78066999999833
 51
112.2192899999792
  0
LINE
  5
2980
330
6168
100
AcDbEntity
  8
0
100
AcDbLine
 10
1171.071731319222
 20
1640.735933378749
 30
0.0
 11
1171.071731319222
 21
1634.235933378749
 31
0.0
  0
LINE
  5
2981
330
6168
100
AcDbEntity
  8
0
100
AcDbLine
 10
1169.499934549499
 20
1645.23593337875
 30
0.0
 11
1169.499934549499
 21
1640.73593337875
 31
0.0
  0
ARC
  5
2982
330
6168
100
AcDbEntity
  8
0
100
AcDbCircle
 10
1188.392239394911
 20
1634.200219093035
 30
0.0
 40
3.464285714285712
100
AcDbArc
 50
179.4093113971838
 51
0.5906886028161731
  0
LINE
  5
2983
330
6168
100
AcDbEntity
  8
0
100
AcDbLine
 10
1191.856341010049
 20
1640.735933378749
 30
0.0
 11
1191.856341010049
 21
1634.235933378749
 31
0.0
  0
LINE
  5
2984
330
6168
100
AcDbEntity
  8
0
100
AcDbLine
 10
1184.928137779773
 20
1640.735933378749
 30
0.0
 11
1184.928137779773
 21
1634.235933378749
 31
0.0
  0
ARC
  5
2985
330
6168
100
AcDbEntity
  8
0
100
AcDbCircle
 10
1188.392239549499
 20
1653.526382378749
 30
0.0
 40
5.090450299999996
100
AcDbArc
 50
227.1166380000249
 51
312.8833100000217
  0
LINE
  5
2986
330
6168
100
AcDbEntity
  8
0
100
AcDbLine
 10
1192.999934549499
 20
1645.235933378749
 30
0.0
 11
1192.999934549499
 21
1648.43593337875
 31
0.0
  0
LINE
  5
2987
330
6168
100
AcDbEntity
  8
0
100
AcDbLine
 10
1186.499934549499
 20
1645.235933378749
 30
0.0
 11
1186.499934549499
 21
1640.735933378749
 31
0.0
  0
ARC
  5
2988
330
6168
100
AcDbEntity
  8
0
100
AcDbCircle
 10
1177.999934549498
 20
1639.343076235892
 30
0.0
 40
8.607142857142848
100
AcDbArc
 50
216.3958791981
 51
323.6041208018999
  0
ARC
  5
2989
330
6168
100
AcDbEntity
  8
0
100
AcDbCircle
 10
1177.999934549499
 20
1666.757106378749
 30
0.0
 40
18.321183
100
AcDbArc
 50
247.7807000000201
 51
292.219320000001
  0
LINE
  5
298A
330
6168
100
AcDbEntity
  8
0
100
AcDbLine
 10
1171.071744549499
 20
1657.075442378749
 30
0.0
 11
1171.071744549499
 21
1649.796393378749
 31
0.0
  0
LINE
  5
298B
330
6168
100
AcDbEntity
  8
0
100
AcDbLine
 10
1191.856328549499
 20
1657.075436378749
 30
0.0
 11
1191.856328549499
 21
1649.796400378749
 31
0.0
  0
LINE
  5
298C
330
6168
100
AcDbEntity
  8
0
100
AcDbLine
 10
1184.928143549499
 20
1657.075442378749
 30
0.0
 11
1184.928143549499
 21
1649.796393378749
 31
0.0
  0
LINE
  5
298D
330
6168
100
AcDbEntity
  8
0
100
AcDbLine
 10
1209.999934549499
 20
1610.235933378748
 30
0.0
 11
1209.999934549499
 21
1645.235933378749
 31
0.0
  0
LINE
  5
298E
330
6168
100
AcDbEntity
  8
0
100
AcDbLine
 10
1209.999934549499
 20
1747.23593337875
 30
0.0
 11
1209.999934549499
 21
1677.23593337875
 31
0.0
  0
ARC
  5
298F
330
6168
100
AcDbEntity
  8
0
100
AcDbCircle
 10
1200.999934549498
 20
1722.53593337875
 30
0.0
 40
2.0
100
AcDbArc
 50
270.0
 51
0.0
  0
ARC
  5
2990
330
6168
100
AcDbEntity
  8
0
100
AcDbCircle
 10
1188.13386580218
 20
1722.53593337875
 30
0.0
 40
2.0
100
AcDbArc
 50
172.3377443392409
 51
270.0
  0
LINE
  5
2991
330
6168
100
AcDbEntity
  8
0
100
AcDbLine
 10
1200.999934549498
 20
1720.53593337875
 30
0.0
 11
1188.13386580218
 21
1720.53593337875
 31
0.0
  0
LINE
  5
2992
330
6168
100
AcDbEntity
  8
0
100
AcDbLine
 10
1199.499934549499
 20
1673.73593337875
 30
0.0
 11
1177.999934549499
 21
1673.735933378749
 31
0.0
  0
LINE
  5
2993
330
6168
100
AcDbEntity
  8
0
100
AcDbLine
 10
1209.999934549499
 20
1677.23593337875
 30
0.0
 11
1177.999934549499
 21
1677.235933378749
 31
0.0
  0
LINE
  5
2994
330
6168
100
AcDbEntity
  8
0
100
AcDbLine
 10
1209.999934549499
 20
1681.73593337875
 30
0.0
 11
1177.999934549499
 21
1681.735933378748
 31
0.0
  0
LINE
  5
2995
330
6168
100
AcDbEntity
  8
0
100
AcDbLine
 10
1197.999934549499
 20
1666.235933378749
 30
0.0
 11
1177.999934549499
 21
1666.235933378749
 31
0.0
  0
LINE
  5
2996
330
6168
100
AcDbEntity
  8
0
100
AcDbLine
 10
1171.071718154193
 20
1692.875455378749
 30
0.0
 11
1171.071718154193
 21
1681.735933378748
 31
0.0
  0
LINE
  5
2997
330
6168
100
AcDbEntity
  8
0
100
AcDbLine
 10
1191.856318154193
 20
1692.875455378749
 30
0.0
 11
1191.856318154193
 21
1681.735933378748
 31
0.0
  0
LINE
  5
2998
330
6168
100
AcDbEntity
  8
0
100
AcDbLine
 10
1184.928138154193
 20
1692.875455378749
 30
0.0
 11
1184.928138154193
 21
1681.735933378748
 31
0.0
  0
ARC
  5
2999
330
6168
100
AcDbEntity
  8
0
100
AcDbCircle
 10
1188.392228154194
 20
1689.145467378749
 30
0.0
 40
5.090450299999996
100
AcDbArc
 50
47.11667999998017
 51
132.8833600000123
  0
LINE
  5
299A
330
6168
100
AcDbEntity
  8
0
100
AcDbLine
 10
1189.799934549498
 20
1673.735933378749
 30
0.0
 11
1189.799934549499
 21
1677.235933378749
 31
0.0
  0
ARC
  5
299B
330
6168
100
AcDbEntity
  8
0
100
AcDbCircle
 10
1177.999928154193
 20
1675.914753378749
 30
0.0
 40
18.321183
100
AcDbArc
 50
67.78066999999833
 51
112.2192899999792
  0
LINE
  5
299C
330
6168
100
AcDbEntity
  8
0
100
AcDbLine
 10
1199.499934549499
 20
1673.73593337875
 30
0.0
 11
1199.499934549499
 21
1666.235933378749
 31
0.0
  0
LINE
  5
299D
330
6168
100
AcDbEntity
  8
0
100
AcDbLine
 10
1199.499934549499
 20
1666.235933378749
 30
0.0
 11
1197.999934549499
 21
1666.235933378749
 31
0.0
  0
ARC
  5
299E
330
6168
100
AcDbEntity
  8
0
100
AcDbCircle
 10
1202.999934549498
 20
1720.53593337875
 30
0.0
 40
17.0
100
AcDbArc
 50
97.66225566075881
 51
172.3377443392409
  0
ARC
  5
299F
330
6168
100
AcDbEntity
  8
0
100
AcDbCircle
 10
1200.999934549498
 20
1735.402002126068
 30
0.0
 40
2.0
100
AcDbArc
 50
0.0
 51
97.66225566075881
  0
LINE
  5
29A0
330
6168
100
AcDbEntity
  8
0
100
AcDbLine
 10
1202.999934549498
 20
1722.53593337875
 30
0.0
 11
1202.999934549498
 21
1735.402002126068
 31
0.0
  0
LINE
  5
29A3
330
6168
100
AcDbEntity
  8
0
100
AcDbLine
 10
1209.999955423524
 20
2123.000031738607
 30
0.0
 11
1209.999955423524
 21
2362.999955017667
 31
0.0
  0
LINE
  5
29A4
330
6168
100
AcDbEntity
  8
0
100
AcDbLine
 10
1179.999955423524
 20
2123.000031738607
 30
0.0
 11
1179.999955423524
 21
2362.999955017667
 31
0.0
  0
LINE
  5
29A7
330
6168
100
AcDbEntity
  8
0
100
AcDbLine
 10
1209.99997629755
 20
2118.500031738607
 30
0.0
 11
1142.99997629755
 21
2118.500031738607
 31
0.0
  0
LINE
  5
29A8
330
6168
100
AcDbEntity
  8
0
100
AcDbLine
 10
1209.99997629755
 20
2123.000031738607
 30
0.0
 11
1142.99997629755
 21
2123.000031738607
 31
0.0
  0
LINE
  5
29A9
330
6168
100
AcDbEntity
  8
0
100
AcDbLine
 10
1148.974102278928
 20
2088.000033833997
 30
0.0
 11
1207.025850316172
 21
2088.000033833997
 31
0.0
  0
LINE
  5
29AA
330
6168
100
AcDbEntity
  8
0
100
AcDbLine
 10
1186.499997121571
 20
2056.000075397899
 30
0.0
 11
1142.99997629755
 21
2056.000037654342
 31
0.0
  0
CIRCLE
  5
29AB
330
6168
100
AcDbEntity
  8
0
100
AcDbCircle
 10
1177.99997629755
 20
2088.000033833997
 30
0.0
 40
21.0
  0
CIRCLE
  5
29AC
330
6168
100
AcDbEntity
  8
0
100
AcDbCircle
 10
1030.000020874026
 20
2075.999960361297
 30
0.0
 40
6.0
  0
LINE
  5
29AD
330
6168
100
AcDbEntity
  8
0
100
AcDbLine
 10
1029.999955423524
 20
2097.935804237283
 30
0.0
 11
1029.999955423524
 21
2054.064248374235
 31
0.0
  0
LINE
  5
29AE
330
6168
100
AcDbEntity
  8
0
100
AcDbLine
 10
1142.99997629755
 20
2123.000031738607
 30
0.0
 11
1142.99997629755
 21
2056.000037654342
 31
0.0
  0
LINE
  5
29AF
330
6168
100
AcDbEntity
  8
0
100
AcDbLine
 10
1147.49997629755
 20
2118.500031738607
 30
0.0
 11
1147.49997629755
 21
2056.000037654342
 31
0.0
  0
ARC
  5
29B0
330
6168
100
AcDbEntity
  8
0
100
AcDbCircle
 10
1185.99997629755
 20
2080.000075397891
 30
0.0
 40
24.0
100
AcDbArc
 50
270.0000497136854
 51
0.0
  0
LINE
  5
29B1
330
6168
100
AcDbEntity
  8
0
100
AcDbLine
 10
1209.99997629755
 20
2079.500075397891
 30
0.0
 11
1209.99997629755
 21
2123.000031738607
 31
0.0
  0
LINE
  5
29B2
330
6168
100
AcDbEntity
  8
0
100
AcDbLine
 10
1177.99997629755
 20
2058.974159815376
 30
0.0
 11
1177.99997629755
 21
2117.02590785262
 31
0.0
  0
LINE
  5
29B4
330
6168
100
AcDbEntity
  8
0
100
AcDbLine
 10
1148.974102278928
 20
2397.999952922278
 30
0.0
 11
1207.025850316172
 21
2397.999952922278
 31
0.0
  0
LINE
  5
29B5
330
6168
100
AcDbEntity
  8
0
100
AcDbLine
 10
1209.99997629755
 20
2367.499955017667
 30
0.0
 11
1142.99997629755
 21
2367.499955017667
 31
0.0
  0
LINE
  5
29B6
330
6168
100
AcDbEntity
  8
0
100
AcDbLine
 10
1209.99997629755
 20
2362.999955017667
 30
0.0
 11
1142.99997629755
 21
2362.999955017667
 31
0.0
  0
LINE
  5
29BA
330
6168
100
AcDbEntity
  8
0
100
AcDbLine
 10
1209.99997629755
 20
2406.499911358386
 30
0.0
 11
1209.99997629755
 21
2362.999955017667
 31
0.0
  0
TEXT
  5
29BB
330
6168
100
AcDbEntity
  8
0
100
AcDbText
 10
600.5084324796958
 20
2539.378324638053
 30
0.0
 40
25.0
  1
4-φ16＜機器取付穴＞
100
AcDbText
  0
LINE
  5
29BC
330
6168
100
AcDbEntity
  8
0
100
AcDbLine
 10
586.693239487297
 20
2529.999973998448
 30
0.0
 11
936.9407883097336
 21
2529.999973998448
 31
0.0
  0
LINE
  5
29BE
330
6168
100
AcDbEntity
  8
0
100
AcDbLine
 10
1186.499997121571
 20
2429.999911358378
 30
0.0
 11
1142.99997629755
 21
2429.999949101933
 31
0.0
  0
LINE
  5
3B40
330
6168
100
AcDbEntity
  8
0
100
AcDbLine
 10
559.9999554235246
 20
2370.000019772024
 30
0.0
 11
559.9999554235246
 21
2115.999966984253
 31
0.0
  0
LINE
  5
3B42
330
6168
100
AcDbEntity
  8
0
100
AcDbLine
 10
499.9999554235246
 20
2370.000034635712
 30
0.0
 11
499.9999554235246
 21
2115.999952120564
 31
0.0
  0
LINE
  5
3B4B
330
6168
100
AcDbEntity
  8
0
100
AcDbLine
 10
1059.999955423524
 20
2370.000019772024
 30
0.0
 11
1059.999955423524
 21
2115.999966984253
 31
0.0
  0
LINE
  5
3B4D
330
6168
100
AcDbEntity
  8
0
100
AcDbLine
 10
999.9999554235246
 20
2370.000034635712
 30
0.0
 11
999.9999554235246
 21
2115.999952120564
 31
0.0
  0
LINE
  5
442F
330
6168
100
AcDbEntity
  8
0
100
AcDbLine
 10
1595.156168583049
 20
2122.98527470777
 30
0.0
 11
1595.156168583049
 21
2362.999993422745
 31
0.0
  0
LINE
  5
4430
330
6168
100
AcDbEntity
  8
0
100
AcDbLine
 10
1485.156168583048
 20
2122.999993333531
 30
0.0
 11
1485.156168583048
 21
2362.999993422745
 31
0.0
  0
LINE
  5
4431
330
6168
100
AcDbEntity
  8
0
100
AcDbLine
 10
1515.156168583048
 20
2122.999993333531
 30
0.0
 11
1515.156168583048
 21
2362.999993422745
 31
0.0
  0
LINE
  5
4432
330
6168
100
AcDbEntity
  8
0
100
AcDbLine
 10
1625.156168583049
 20
2122.999993333531
 30
0.0
 11
1625.156168583049
 21
2362.999993422743
 31
0.0
  0
LINE
  5
4433
330
6168
100
AcDbEntity
  8
0
100
AcDbLine
 10
1566.156168583049
 20
2095.973449294909
 30
0.0
 11
1573.956198583048
 21
2095.975085858064
 31
0.0
  0
LINE
  5
4434
330
6168
100
AcDbEntity
  8
0
100
AcDbLine
 10
1566.156168583048
 20
2079.973448718471
 30
0.0
 11
1573.956198583048
 21
2079.975085281626
 31
0.0
  0
LINE
  5
4435
330
6168
100
AcDbEntity
  8
0
100
AcDbLine
 10
1528.496625280778
 20
2087.99999333353
 30
0.0
 11
1607.779999853567
 21
2087.99999333353
 31
0.0
  0
ARC
  5
4436
330
6168
100
AcDbEntity
  8
0
100
AcDbCircle
 10
1579.046647583048
 20
2077.607688333531
 30
0.0
 40
5.090450299999996
100
AcDbArc
 50
137.1166399999829
 51
222.8833200000158
  0
ARC
  5
4437
330
6168
100
AcDbEntity
  8
0
100
AcDbCircle
 10
1598.191882868763
 20
2077.607688488118
 30
0.0
 40
3.464285714285712
100
AcDbArc
 50
269.4093113971837
 51
90.59068860281616
  0
ARC
  5
4438
330
6168
100
AcDbEntity
  8
0
100
AcDbCircle
 10
1578.865719583049
 20
2077.607688333531
 30
0.0
 40
5.090450299999996
100
AcDbArc
 50
317.1166899999791
 51
42.88336199997586
  0
LINE
  5
4439
330
6168
100
AcDbEntity
  8
0
100
AcDbLine
 10
1625.156168583049
 20
2122.999993333531
 30
0.0
 11
1625.156168583049
 21
2062.299993333532
 31
0.0
  0
LINE
  5
443A
330
6168
100
AcDbEntity
  8
0
100
AcDbLine
 10
1583.956168583048
 20
2072.999993333529
 30
0.0
 11
1583.956168583048
 21
2102.999993333531
 31
0.0
  0
LINE
  5
443B
330
6168
100
AcDbEntity
  8
0
100
AcDbLine
 10
1610.156168583048
 20
2069.999993333532
 30
0.0
 11
1610.156168583048
 21
2100.999993333531
 31
0.0
  0
LINE
  5
443C
330
6168
100
AcDbEntity
  8
0
100
AcDbLine
 10
1587.156168583049
 20
2055.999993333531
 30
0.0
 11
1587.156168583048
 21
2114.499993333531
 31
0.0
  0
LINE
  5
443D
330
6168
100
AcDbEntity
  8
0
100
AcDbLine
 10
1591.656168583049
 20
2055.999993333531
 30
0.0
 11
1591.656168583048
 21
2114.499993333531
 31
0.0
  0
LINE
  5
443E
330
6168
100
AcDbEntity
  8
0
100
AcDbLine
 10
1624.156168583049
 20
2062.999993333531
 30
0.0
 11
1617.156168583048
 21
2062.999993333531
 31
0.0
  0
ARC
  5
443F
330
6168
100
AcDbEntity
  8
0
100
AcDbCircle
 10
1622.156168583048
 20
2058.999993333531
 30
0.0
 40
3.0
100
AcDbArc
 50
270.0
 51
0.0
  0
ARC
  5
4440
330
6168
100
AcDbEntity
  8
0
100
AcDbCircle
 10
1624.156168583049
 20
2061.999993333531
 30
0.0
 40
1.0
100
AcDbArc
 50
0.0
 51
90.0
  0
LINE
  5
4441
330
6168
100
AcDbEntity
  8
0
100
AcDbLine
 10
1625.156168583049
 20
2061.999993333531
 30
0.0
 11
1625.156168583049
 21
2058.999993333531
 31
0.0
  0
LINE
  5
4442
330
6168
100
AcDbEntity
  8
0
100
AcDbLine
 10
1591.656168583048
 20
2074.143586872979
 30
0.0
 11
1598.156168583048
 21
2074.143586872979
 31
0.0
  0
LINE
  5
4443
330
6168
100
AcDbEntity
  8
0
100
AcDbLine
 10
1587.156168583048
 20
2072.999993333529
 30
0.0
 11
1583.956168583048
 21
2072.999993333529
 31
0.0
  0
LINE
  5
4444
330
6168
100
AcDbEntity
  8
0
100
AcDbLine
 10
1622.156168583048
 20
2055.999993333531
 30
0.0
 11
1587.156168583049
 21
2055.999993333531
 31
0.0
  0
ARC
  5
4445
330
6168
100
AcDbEntity
  8
0
100
AcDbCircle
 10
1617.156168583048
 20
2069.999993333532
 30
0.0
 40
7.0
100
AcDbArc
 50
180.0
 51
270.0
  0
LINE
  5
4446
330
6168
100
AcDbEntity
  8
0
100
AcDbLine
 10
1575.316665583049
 20
2074.143599333531
 30
0.0
 11
1582.595701583048
 21
2074.143599333531
 31
0.0
  0
LINE
  5
4447
330
6168
100
AcDbEntity
  8
0
100
AcDbLine
 10
1624.156168583048
 20
2107.999993333531
 30
0.0
 11
1617.156168583048
 21
2107.999993333531
 31
0.0
  0
LINE
  5
4448
330
6168
100
AcDbEntity
  8
0
100
AcDbLine
 10
1625.156168583049
 20
2118.499993333531
 30
0.0
 11
1595.656168583048
 21
2118.499993333531
 31
0.0
  0
LINE
  5
4449
330
6168
100
AcDbEntity
  8
0
100
AcDbLine
 10
1625.156168583049
 20
2122.999993333531
 30
0.0
 11
1595.656168583048
 21
2122.999993333531
 31
0.0
  0
ARC
  5
444A
330
6168
100
AcDbEntity
  8
0
100
AcDbCircle
 10
1624.156168583049
 20
2108.999993333531
 30
0.0
 40
1.0
100
AcDbArc
 50
270.0
 51
0.0
  0
ARC
  5
444B
330
6168
100
AcDbEntity
  8
0
100
AcDbCircle
 10
1617.156168583048
 20
2100.999993333531
 30
0.0
 40
7.0
100
AcDbArc
 50
90.0
 51
180.0
  0
ARC
  5
444C
330
6168
100
AcDbEntity
  8
0
100
AcDbCircle
 10
1579.046647583048
 20
2098.392293333529
 30
0.0
 40
5.090450299999996
100
AcDbArc
 50
137.116689999979
 51
222.8833700000026
  0
LINE
  5
444D
330
6168
100
AcDbEntity
  8
0
100
AcDbLine
 10
1573.956198583048
 20
2098.392293333529
 30
0.0
 11
1573.956198583048
 21
2077.607688333531
 31
0.0
  0
ARC
  5
444E
330
6168
100
AcDbEntity
  8
0
100
AcDbCircle
 10
1592.277378583048
 20
2087.99999333353
 30
0.0
 40
18.321183
100
AcDbArc
 50
157.7807100000153
 51
202.219330000004
  0
LINE
  5
444F
330
6168
100
AcDbEntity
  8
0
100
AcDbLine
 10
1591.656168583048
 20
2094.928196563806
 30
0.0
 11
1598.156168583048
 21
2094.928196563806
 31
0.0
  0
LINE
  5
4450
330
6168
100
AcDbEntity
  8
0
100
AcDbLine
 10
1598.156168583048
 20
2101.856399794082
 30
0.0
 11
1591.656168583048
 21
2101.856399794082
 31
0.0
  0
ARC
  5
4451
330
6168
100
AcDbEntity
  8
0
100
AcDbCircle
 10
1598.191882868763
 20
2098.392298178945
 30
0.0
 40
3.464285714285712
100
AcDbArc
 50
269.4093113971837
 51
90.59068860281616
  0
LINE
  5
4452
330
6168
100
AcDbEntity
  8
0
100
AcDbLine
 10
1587.156168583048
 20
2102.999993333531
 30
0.0
 11
1583.956168583048
 21
2102.999993333531
 31
0.0
  0
ARC
  5
4453
330
6168
100
AcDbEntity
  8
0
100
AcDbCircle
 10
1578.865719583049
 20
2098.392293333529
 30
0.0
 40
5.090450299999996
100
AcDbArc
 50
317.1166399999829
 51
42.88331699997915
  0
LINE
  5
4454
330
6168
100
AcDbEntity
  8
0
100
AcDbLine
 10
1587.156168583048
 20
2096.499993333529
 30
0.0
 11
1591.656168583048
 21
2096.499993333529
 31
0.0
  0
LINE
  5
4455
330
6168
100
AcDbEntity
  8
0
100
AcDbLine
 10
1591.656168583048
 20
2081.071790103257
 30
0.0
 11
1598.156168583048
 21
2081.071790103257
 31
0.0
  0
LINE
  5
4456
330
6168
100
AcDbEntity
  8
0
100
AcDbLine
 10
1587.156168583048
 20
2079.499993333529
 30
0.0
 11
1591.656168583048
 21
2079.499993333529
 31
0.0
  0
LINE
  5
4457
330
6168
100
AcDbEntity
  8
0
100
AcDbLine
 10
1601.656168583048
 20
2077.607688488118
 30
0.0
 11
1601.656168583048
 21
2098.392298178945
 31
0.0
  0
ARC
  5
4458
330
6168
100
AcDbEntity
  8
0
100
AcDbCircle
 10
1593.049025725906
 20
2087.999993333532
 30
0.0
 40
8.607142857142848
100
AcDbArc
 50
306.395879198099
 51
53.60412080190093
  0
ARC
  5
4459
330
6168
100
AcDbEntity
  8
0
100
AcDbCircle
 10
1565.634995583049
 20
2087.99999333353
 30
0.0
 40
18.321183
100
AcDbArc
 50
337.7806800000032
 51
22.2192999999745
  0
LINE
  5
445A
330
6168
100
AcDbEntity
  8
0
100
AcDbLine
 10
1575.316659583048
 20
2094.92818333353
 30
0.0
 11
1582.595708583048
 21
2094.92818333353
 31
0.0
  0
LINE
  5
445B
330
6168
100
AcDbEntity
  8
0
100
AcDbLine
 10
1575.316659583048
 20
2101.85637333353
 30
0.0
 11
1582.595708583048
 21
2101.85637333353
 31
0.0
  0
LINE
  5
445C
330
6168
100
AcDbEntity
  8
0
100
AcDbLine
 10
1575.316659583048
 20
2081.07178433353
 30
0.0
 11
1582.595708583048
 21
2081.07178433353
 31
0.0
  0
ARC
  5
445D
330
6168
100
AcDbEntity
  8
0
100
AcDbCircle
 10
1595.656168583048
 20
2114.499993333531
 30
0.0
 40
4.0
100
AcDbArc
 50
90.0
 51
180.0
  0
ARC
  5
445E
330
6168
100
AcDbEntity
  8
0
100
AcDbCircle
 10
1595.656168583048
 20
2114.499993333531
 30
0.0
 40
8.5
100
AcDbArc
 50
90.0
 51
180.0
  0
ARC
  5
445F
330
6168
100
AcDbEntity
  8
0
100
AcDbCircle
 10
1543.246634583048
 20
2077.607699728836
 30
0.0
 40
5.090450299999996
100
AcDbArc
 50
137.1166399999829
 51
222.8833200000158
  0
LINE
  5
4460
330
6168
100
AcDbEntity
  8
0
100
AcDbLine
 10
1511.856168583047
 20
2064.999993333531
 30
0.0
 11
1511.856168583047
 21
2077.86606208085
 31
0.0
  0
ARC
  5
4461
330
6168
100
AcDbEntity
  8
0
100
AcDbCircle
 10
1511.856168583047
 20
2062.999993333531
 30
0.0
 40
17.0
100
AcDbArc
 50
97.6622556607591
 51
172.3377443392417
  0
LINE
  5
4462
330
6168
100
AcDbEntity
  8
0
100
AcDbLine
 10
1485.156168583048
 20
2122.999993333531
 30
0.0
 11
1485.156168583048
 21
2055.999993333531
 31
0.0
  0
LINE
  5
4463
330
6168
100
AcDbEntity
  8
0
100
AcDbLine
 10
1558.656168583048
 20
2066.499993333529
 30
0.0
 11
1558.656168583049
 21
2087.99999333353
 31
0.0
  0
LINE
  5
4464
330
6168
100
AcDbEntity
  8
0
100
AcDbLine
 10
1555.156168583048
 20
2055.999993333531
 30
0.0
 11
1555.156168583049
 21
2087.99999333353
 31
0.0
  0
LINE
  5
4465
330
6168
100
AcDbEntity
  8
0
100
AcDbLine
 10
1550.656168583048
 20
2055.999993333531
 30
0.0
 11
1550.656168583049
 21
2087.99999333353
 31
0.0
  0
LINE
  5
4466
330
6168
100
AcDbEntity
  8
0
100
AcDbLine
 10
1566.156168583048
 20
2067.999993333529
 30
0.0
 11
1566.156168583048
 21
2087.99999333353
 31
0.0
  0
LINE
  5
4467
330
6168
100
AcDbEntity
  8
0
100
AcDbLine
 10
1485.156168583048
 20
2055.999993333531
 30
0.0
 11
1555.156168583048
 21
2055.999993333531
 31
0.0
  0
ARC
  5
4468
330
6168
100
AcDbEntity
  8
0
100
AcDbCircle
 10
1509.856168583048
 20
2064.999993333531
 30
0.0
 40
2.0
100
AcDbArc
 50
270.0
 51
0.0
  0
LINE
  5
4469
330
6168
100
AcDbEntity
  8
0
100
AcDbLine
 10
1539.516646583048
 20
2074.143609728837
 30
0.0
 11
1550.656168583048
 21
2074.143609728837
 31
0.0
  0
LINE
  5
446A
330
6168
100
AcDbEntity
  8
0
100
AcDbLine
 10
1558.656168583048
 20
2066.499993333529
 30
0.0
 11
1566.156168583048
 21
2066.499993333529
 31
0.0
  0
LINE
  5
446B
330
6168
100
AcDbEntity
  8
0
100
AcDbLine
 10
1566.156168583048
 20
2066.499993333529
 30
0.0
 11
1566.156168583048
 21
2067.999993333529
 31
0.0
  0
ARC
  5
446C
330
6168
100
AcDbEntity
  8
0
100
AcDbCircle
 10
1496.990099835729
 20
2064.999993333531
 30
0.0
 40
2.0
100
AcDbArc
 50
172.3377443392417
 51
270.0
  0
LINE
  5
446D
330
6168
100
AcDbEntity
  8
0
100
AcDbLine
 10
1509.856168583048
 20
2062.999993333531
 30
0.0
 11
1496.990099835729
 21
2062.999993333531
 31
0.0
  0
ARC
  5
446E
330
6168
100
AcDbEntity
  8
0
100
AcDbCircle
 10
1509.856168583048
 20
2098.133924586213
 30
0.0
 40
2.0
100
AcDbArc
 50
262.3377443392409
 51
0.0
  0
ARC
  5
446F
330
6168
100
AcDbEntity
  8
0
100
AcDbCircle
 10
1509.856168583048
 20
2110.999993333532
 30
0.0
 40
2.0
100
AcDbArc
 50
0.0
 51
90.0
  0
LINE
  5
4470
330
6168
100
AcDbEntity
  8
0
100
AcDbLine
 10
1485.156168583048
 20
2118.499993333531
 30
0.0
 11
1547.656168583049
 21
2118.499993333531
 31
0.0
  0
LINE
  5
4471
330
6168
100
AcDbEntity
  8
0
100
AcDbLine
 10
1485.156168583048
 20
2122.999993333531
 30
0.0
 11
1547.656168583049
 21
2122.999993333531
 31
0.0
  0
ARC
  5
4472
330
6168
100
AcDbEntity
  8
0
100
AcDbCircle
 10
1509.856168583048
 20
2077.86606208085
 30
0.0
 40
2.0
100
AcDbArc
 50
0.0
 51
97.6622556607591
  0
LINE
  5
4473
330
6168
100
AcDbEntity
  8
0
100
AcDbLine
 10
1550.656168583048
 20
2087.99999333353
 30
0.0
 11
1550.656168583049
 21
2115.499993333531
 31
0.0
  0
LINE
  5
4474
330
6168
100
AcDbEntity
  8
0
100
AcDbLine
 10
1555.156168583048
 20
2087.99999333353
 30
0.0
 11
1555.156168583049
 21
2115.499993333529
 31
0.0
  0
LINE
  5
4475
330
6168
100
AcDbEntity
  8
0
100
AcDbLine
 10
1558.656168583048
 20
2087.99999333353
 30
0.0
 11
1558.656168583048
 21
2109.49999333353
 31
0.0
  0
LINE
  5
4476
330
6168
100
AcDbEntity
  8
0
100
AcDbLine
 10
1566.156168583048
 20
2087.99999333353
 30
0.0
 11
1566.156168583048
 21
2107.99999333353
 31
0.0
  0
LINE
  5
4477
330
6168
100
AcDbEntity
  8
0
100
AcDbLine
 10
1511.856168583047
 20
2110.999993333532
 30
0.0
 11
1511.856168583047
 21
2098.133924586213
 31
0.0
  0
LINE
  5
4478
330
6168
100
AcDbEntity
  8
0
100
AcDbLine
 10
1539.516646583048
 20
2101.856399728836
 30
0.0
 11
1550.656168583048
 21
2101.856399728836
 31
0.0
  0
LINE
  5
4479
330
6168
100
AcDbEntity
  8
0
100
AcDbLine
 10
1539.516646583048
 20
2094.928209728836
 30
0.0
 11
1550.656168583048
 21
2094.928209728836
 31
0.0
  0
ARC
  5
447A
330
6168
100
AcDbEntity
  8
0
100
AcDbCircle
 10
1543.246634583048
 20
2098.392309728836
 30
0.0
 40
5.090450299999996
100
AcDbArc
 50
137.116689999979
 51
222.8833700000026
  0
LINE
  5
447B
330
6168
100
AcDbEntity
  8
0
100
AcDbLine
 10
1558.656168583048
 20
2099.799993333531
 30
0.0
 11
1555.156168583048
 21
2099.799993333531
 31
0.0
  0
LINE
  5
447C
330
6168
100
AcDbEntity
  8
0
100
AcDbLine
 10
1539.516646583048
 20
2081.071789728836
 30
0.0
 11
1550.656168583048
 21
2081.071789728836
 31
0.0
  0
LINE
  5
447D
330
6168
100
AcDbEntity
  8
0
100
AcDbLine
 10
1558.656168583048
 20
2076.199993333531
 30
0.0
 11
1555.156168583048
 21
2076.199993333531
 31
0.0
  0
LINE
  5
447E
330
6168
100
AcDbEntity
  8
0
100
AcDbLine
 10
1538.156185583048
 20
2098.392309728836
 30
0.0
 11
1538.156185583048
 21
2077.607699728836
 31
0.0
  0
ARC
  5
447F
330
6168
100
AcDbEntity
  8
0
100
AcDbCircle
 10
1556.477348583048
 20
2087.999999728836
 30
0.0
 40
18.321183
100
AcDbArc
 50
157.7807100000153
 51
202.219330000004
  0
LINE
  5
4480
330
6168
100
AcDbEntity
  8
0
100
AcDbLine
 10
1566.156168583048
 20
2107.99999333353
 30
0.0
 11
1566.156168583048
 21
2109.49999333353
 31
0.0
  0
LINE
  5
4481
330
6168
100
AcDbEntity
  8
0
100
AcDbLine
 10
1558.656168583048
 20
2109.49999333353
 30
0.0
 11
1566.156168583048
 21
2109.49999333353
 31
0.0
  0
ARC
  5
4482
330
6168
100
AcDbEntity
  8
0
100
AcDbCircle
 10
1547.656168583049
 20
2115.499993333531
 30
0.0
 40
3.0
100
AcDbArc
 50
0.0
 51
90.0
  0
ARC
  5
4483
330
6168
100
AcDbEntity
  8
0
100
AcDbCircle
 10
1547.656168583049
 20
2115.499993333531
 30
0.0
 40
7.5
100
AcDbArc
 50
0.0
 51
90.0
  0
ARC
  5
4484
330
6168
100
AcDbEntity
  8
0
100
AcDbCircle
 10
1511.856168583047
 20
2112.999993333532
 30
0.0
 40
17.0
100
AcDbArc
 50
187.6622556607582
 51
262.3377443392409
  0
ARC
  5
4485
330
6168
100
AcDbEntity
  8
0
100
AcDbCircle
 10
1496.990099835729
 20
2110.999993333531
 30
0.0
 40
2.0
100
AcDbArc
 50
90.0
 51
187.6622556607582
  0
LINE
  5
4486
330
6168
100
AcDbEntity
  8
0
100
AcDbLine
 10
1509.856168583048
 20
2112.999993333532
 30
0.0
 11
1496.990099835729
 21
2112.999993333531
 31
0.0
  0
LINE
  5
4487
330
6168
100
AcDbEntity
  8
0
100
AcDbLine
 10
1550.656168583048
 20
2397.999993422745
 30
0.0
 11
1550.656168583049
 21
2370.499993422745
 31
0.0
  0
LINE
  5
4488
330
6168
100
AcDbEntity
  8
0
100
AcDbLine
 10
1555.156168583048
 20
2397.999993422745
 30
0.0
 11
1555.156168583049
 21
2370.499993422745
 31
0.0
  0
ARC
  5
4489
330
6168
100
AcDbEntity
  8
0
100
AcDbCircle
 10
1543.246634583048
 20
2387.607677027439
 30
0.0
 40
5.090450299999996
100
AcDbArc
 50
137.1166299999974
 51
222.8833100000208
  0
LINE
  5
448A
330
6168
100
AcDbEntity
  8
0
100
AcDbLine
 10
1558.656168583048
 20
2397.999993422745
 30
0.0
 11
1558.656168583048
 21
2376.499993422745
 31
0.0
  0
LINE
  5
448B
330
6168
100
AcDbEntity
  8
0
100
AcDbLine
 10
1566.156168583048
 20
2397.999993422745
 30
0.0
 11
1566.156168583048
 21
2377.999993422745
 31
0.0
  0
ARC
  5
448C
330
6168
100
AcDbEntity
  8
0
100
AcDbCircle
 10
1579.046647583048
 20
2387.607693422745
 30
0.0
 40
5.090450299999996
100
AcDbArc
 50
137.1166299999974
 51
222.8833100000208
  0
ARC
  5
448D
330
6168
100
AcDbEntity
  8
0
100
AcDbCircle
 10
1509.856168583048
 20
2387.866062170063
 30
0.0
 40
2.0
100
AcDbArc
 50
0.0
 51
97.6622556607591
  0
ARC
  5
448E
330
6168
100
AcDbEntity
  8
0
100
AcDbCircle
 10
1511.856168583047
 20
2372.999993422744
 30
0.0
 40
17.0
100
AcDbArc
 50
97.6622556607591
 51
172.3377443392417
  0
LINE
  5
448F
330
6168
100
AcDbEntity
  8
0
100
AcDbLine
 10
1485.156168583048
 20
2362.999993422745
 30
0.0
 11
1485.156168583048
 21
2429.999993422744
 31
0.0
  0
LINE
  5
4490
330
6168
100
AcDbEntity
  8
0
100
AcDbLine
 10
1538.156185583048
 20
2387.607677027439
 30
0.0
 11
1538.156185583048
 21
2408.39228702744
 31
0.0
  0
LINE
  5
4491
330
6168
100
AcDbEntity
  8
0
100
AcDbLine
 10
1573.956198583048
 20
2387.607693422745
 30
0.0
 11
1573.956198583048
 21
2408.392298422745
 31
0.0
  0
ARC
  5
4492
330
6168
100
AcDbEntity
  8
0
100
AcDbCircle
 10
1598.191882868763
 20
2387.607688577331
 30
0.0
 40
3.464285714285712
100
AcDbArc
 50
269.4093113971837
 51
90.59068860281616
  0
ARC
  5
4493
330
6168
100
AcDbEntity
  8
0
100
AcDbCircle
 10
1578.865719583049
 20
2387.607693422745
 30
0.0
 40
5.090450299999996
100
AcDbArc
 50
317.1166830000208
 51
42.88336000001573
  0
LINE
  5
4494
330
6168
100
AcDbEntity
  8
0
100
AcDbLine
 10
1625.156168583049
 20
2362.999993422745
 30
0.0
 11
1625.156168583049
 21
2423.699993422744
 31
0.0
  0
LINE
  5
4495
330
6168
100
AcDbEntity
  8
0
100
AcDbLine
 10
1601.656168583048
 20
2408.392298268157
 30
0.0
 11
1601.656168583048
 21
2387.607688577331
 31
0.0
  0
LINE
  5
4496
330
6168
100
AcDbEntity
  8
0
100
AcDbLine
 10
1583.956168583048
 20
2412.999993422745
 30
0.0
 11
1583.956168583048
 21
2382.999993422746
 31
0.0
  0
LINE
  5
4497
330
6168
100
AcDbEntity
  8
0
100
AcDbLine
 10
1610.156168583048
 20
2415.999993422744
 30
0.0
 11
1610.156168583048
 21
2384.999993422745
 31
0.0
  0
LINE
  5
4498
330
6168
100
AcDbEntity
  8
0
100
AcDbLine
 10
1587.156168583049
 20
2429.999993422744
 30
0.0
 11
1587.156168583048
 21
2371.499993422744
 31
0.0
  0
LINE
  5
4499
330
6168
100
AcDbEntity
  8
0
100
AcDbLine
 10
1591.656168583049
 20
2429.999993422744
 30
0.0
 11
1591.656168583048
 21
2371.499993422744
 31
0.0
  0
LINE
  5
449A
330
6168
100
AcDbEntity
  8
0
100
AcDbLine
 10
1624.156168583048
 20
2377.999993422744
 30
0.0
 11
1617.156168583048
 21
2377.999993422744
 31
0.0
  0
LINE
  5
449B
330
6168
100
AcDbEntity
  8
0
100
AcDbLine
 10
1625.156168583049
 20
2367.499993422744
 30
0.0
 11
1595.656168583048
 21
2367.499993422744
 31
0.0
  0
LINE
  5
449C
330
6168
100
AcDbEntity
  8
0
100
AcDbLine
 10
1625.156168583049
 20
2362.999993422745
 30
0.0
 11
1595.656168583048
 21
2362.999993422745
 31
0.0
  0
ARC
  5
449D
330
6168
100
AcDbEntity
  8
0
100
AcDbCircle
 10
1624.156168583049
 20
2376.999993422745
 30
0.0
 40
1.0
100
AcDbArc
 50
0.0
 51
90.0
  0
ARC
  5
449E
330
6168
100
AcDbEntity
  8
0
100
AcDbCircle
 10
1595.656168583048
 20
2371.499993422744
 30
0.0
 40
4.0
100
AcDbArc
 50
180.0
 51
270.0
  0
ARC
  5
449F
330
6168
100
AcDbEntity
  8
0
100
AcDbCircle
 10
1595.656168583048
 20
2371.499993422744
 30
0.0
 40
8.5
100
AcDbArc
 50
180.0
 51
270.0
  0
LINE
  5
44A0
330
6168
100
AcDbEntity
  8
0
100
AcDbLine
 10
1598.156168583048
 20
2384.143586962192
 30
0.0
 11
1591.656168583048
 21
2384.143586962192
 31
0.0
  0
LINE
  5
44A1
330
6168
100
AcDbEntity
  8
0
100
AcDbLine
 10
1587.156168583048
 20
2382.999993422746
 30
0.0
 11
1583.956168583048
 21
2382.999993422746
 31
0.0
  0
ARC
  5
44A2
330
6168
100
AcDbEntity
  8
0
100
AcDbCircle
 10
1617.156168583048
 20
2384.999993422745
 30
0.0
 40
7.0
100
AcDbArc
 50
180.0
 51
270.0
  0
LINE
  5
44A3
330
6168
100
AcDbEntity
  8
0
100
AcDbLine
 10
1575.316659583048
 20
2384.143613422745
 30
0.0
 11
1582.595708583048
 21
2384.143613422745
 31
0.0
  0
ARC
  5
44A4
330
6168
100
AcDbEntity
  8
0
100
AcDbCircle
 10
1509.856168583048
 20
2374.999993422743
 30
0.0
 40
2.0
100
AcDbArc
 50
270.0
 51
0.0
  0
LINE
  5
44A5
330
6168
100
AcDbEntity
  8
0
100
AcDbLine
 10
1485.156168583048
 20
2367.499993422744
 30
0.0
 11
1547.656168583049
 21
2367.499993422744
 31
0.0
  0
LINE
  5
44A6
330
6168
100
AcDbEntity
  8
0
100
AcDbLine
 10
1485.156168583048
 20
2362.999993422745
 30
0.0
 11
1547.656168583049
 21
2362.999993422745
 31
0.0
  0
LINE
  5
44A7
330
6168
100
AcDbEntity
  8
0
100
AcDbLine
 10
1539.516646583048
 20
2384.143587027439
 30
0.0
 11
1550.656168583048
 21
2384.143587027439
 31
0.0
  0
LINE
  5
44A8
330
6168
100
AcDbEntity
  8
0
100
AcDbLine
 10
1558.656168583048
 20
2386.199993422745
 30
0.0
 11
1555.156168583048
 21
2386.199993422745
 31
0.0
  0
LINE
  5
44A9
330
6168
100
AcDbEntity
  8
0
100
AcDbLine
 10
1566.156168583048
 20
2377.999993422745
 30
0.0
 11
1566.156168583048
 21
2376.499993422745
 31
0.0
  0
LINE
  5
44AA
330
6168
100
AcDbEntity
  8
0
100
AcDbLine
 10
1558.656168583048
 20
2376.499993422745
 30
0.0
 11
1566.156168583048
 21
2376.499993422745
 31
0.0
  0
LINE
  5
44AB
330
6168
100
AcDbEntity
  8
0
100
AcDbLine
 10
1511.856168583047
 20
2374.999993422743
 30
0.0
 11
1511.856168583047
 21
2387.866062170063
 31
0.0
  0
ARC
  5
44AC
330
6168
100
AcDbEntity
  8
0
100
AcDbCircle
 10
1547.656168583049
 20
2370.499993422745
 30
0.0
 40
3.0
100
AcDbArc
 50
270.0
 51
0.0
  0
ARC
  5
44AD
330
6168
100
AcDbEntity
  8
0
100
AcDbCircle
 10
1547.656168583049
 20
2370.499993422745
 30
0.0
 40
7.5
100
AcDbArc
 50
270.0
 51
0.0
  0
ARC
  5
44AE
330
6168
100
AcDbEntity
  8
0
100
AcDbCircle
 10
1496.990099835729
 20
2374.999993422744
 30
0.0
 40
2.0
100
AcDbArc
 50
172.3377443392417
 51
270.0
  0
LINE
  5
44AF
330
6168
100
AcDbEntity
  8
0
100
AcDbLine
 10
1509.856168583048
 20
2372.999993422744
 30
0.0
 11
1496.990099835729
 21
2372.999993422745
 31
0.0
  0
LINE
  5
44B0
330
6168
100
AcDbEntity
  8
0
100
AcDbLine
 10
1566.156168583049
 20
2390.026537461366
 30
0.0
 11
1573.956198583048
 21
2390.024900898211
 31
0.0
  0
LINE
  5
44B1
330
6168
100
AcDbEntity
  8
0
100
AcDbLine
 10
1566.156168583048
 20
2406.026538037804
 30
0.0
 11
1573.956198583048
 21
2406.024901474649
 31
0.0
  0
LINE
  5
44B2
330
6168
100
AcDbEntity
  8
0
100
AcDbLine
 10
1528.496625280778
 20
2397.999993422745
 30
0.0
 11
1607.779999853567
 21
2397.999993422745
 31
0.0
  0
LINE
  5
44B3
330
6168
100
AcDbEntity
  8
0
100
AcDbLine
 10
1624.156168583049
 20
2422.999993422744
 30
0.0
 11
1617.156168583048
 21
2422.999993422744
 31
0.0
  0
ARC
  5
44B4
330
6168
100
AcDbEntity
  8
0
100
AcDbCircle
 10
1622.156168583048
 20
2426.999993422745
 30
0.0
 40
3.0
100
AcDbArc
 50
0.0
 51
90.0
  0
ARC
  5
44B5
330
6168
100
AcDbEntity
  8
0
100
AcDbCircle
 10
1624.156168583049
 20
2423.999993422746
 30
0.0
 40
1.0
100
AcDbArc
 50
270.0
 51
0.0
  0
LINE
  5
44B6
330
6168
100
AcDbEntity
  8
0
100
AcDbLine
 10
1625.156168583049
 20
2423.999993422746
 30
0.0
 11
1625.156168583049
 21
2426.999993422745
 31
0.0
  0
ARC
  5
44B7
330
6168
100
AcDbEntity
  8
0
100
AcDbCircle
 10
1617.156168583048
 20
2415.999993422744
 30
0.0
 40
7.0
100
AcDbArc
 50
90.0
 51
180.0
  0
ARC
  5
44B8
330
6168
100
AcDbEntity
  8
0
100
AcDbCircle
 10
1579.046647583048
 20
2408.392298422745
 30
0.0
 40
5.090450299999996
100
AcDbArc
 50
137.1166799999828
 51
222.8833600000157
  0
ARC
  5
44B9
330
6168
100
AcDbEntity
  8
0
100
AcDbCircle
 10
1592.277378583048
 20
2397.999993422745
 30
0.0
 40
18.321183
100
AcDbArc
 50
157.780669999996
 51
202.2192899999847
  0
LINE
  5
44BA
330
6168
100
AcDbEntity
  8
0
100
AcDbLine
 10
1591.656168583048
 20
2391.071790192468
 30
0.0
 11
1598.156168583048
 21
2391.071790192468
 31
0.0
  0
LINE
  5
44BB
330
6168
100
AcDbEntity
  8
0
100
AcDbLine
 10
1587.156168583048
 20
2389.499993422745
 30
0.0
 11
1591.656168583048
 21
2389.499993422745
 31
0.0
  0
ARC
  5
44BC
330
6168
100
AcDbEntity
  8
0
100
AcDbCircle
 10
1598.191882868763
 20
2408.392298268157
 30
0.0
 40
3.464285714285712
100
AcDbArc
 50
269.4093113971837
 51
90.59068860281616
  0
LINE
  5
44BD
330
6168
100
AcDbEntity
  8
0
100
AcDbLine
 10
1591.656168583048
 20
2411.856399883295
 30
0.0
 11
1598.156168583048
 21
2411.856399883295
 31
0.0
  0
LINE
  5
44BE
330
6168
100
AcDbEntity
  8
0
100
AcDbLine
 10
1591.656168583048
 20
2404.92819665302
 30
0.0
 11
1598.156168583048
 21
2404.92819665302
 31
0.0
  0
ARC
  5
44BF
330
6168
100
AcDbEntity
  8
0
100
AcDbCircle
 10
1578.865719583049
 20
2408.392298422745
 30
0.0
 40
5.090450299999996
100
AcDbArc
 50
317.116638000024
 51
42.88331000002086
  0
LINE
  5
44C0
330
6168
100
AcDbEntity
  8
0
100
AcDbLine
 10
1587.156168583048
 20
2412.999993422745
 30
0.0
 11
1583.956168583048
 21
2412.999993422745
 31
0.0
  0
LINE
  5
44C1
330
6168
100
AcDbEntity
  8
0
100
AcDbLine
 10
1587.156168583048
 20
2406.499993422746
 30
0.0
 11
1591.656168583048
 21
2406.499993422746
 31
0.0
  0
ARC
  5
44C2
330
6168
100
AcDbEntity
  8
0
100
AcDbCircle
 10
1593.049025725906
 20
2397.999993422744
 30
0.0
 40
8.607142857142848
100
AcDbArc
 50
306.395879198099
 51
53.60412080190093
  0
ARC
  5
44C3
330
6168
100
AcDbEntity
  8
0
100
AcDbCircle
 10
1565.634995583049
 20
2397.999993422745
 30
0.0
 40
18.321183
100
AcDbArc
 50
337.7807000000256
 51
22.21932000000116
  0
LINE
  5
44C4
330
6168
100
AcDbEntity
  8
0
100
AcDbLine
 10
1575.316659583048
 20
2391.071803422745
 30
0.0
 11
1582.595708583048
 21
2391.071803422745
 31
0.0
  0
LINE
  5
44C5
330
6168
100
AcDbEntity
  8
0
100
AcDbLine
 10
1575.316665583049
 20
2411.856387422745
 30
0.0
 11
1582.595701583048
 21
2411.856387422745
 31
0.0
  0
LINE
  5
44C6
330
6168
100
AcDbEntity
  8
0
100
AcDbLine
 10
1575.316659583048
 20
2404.928202422745
 30
0.0
 11
1582.595708583048
 21
2404.928202422745
 31
0.0
  0
LINE
  5
44C7
330
6168
100
AcDbEntity
  8
0
100
AcDbLine
 10
1622.156168583048
 20
2429.999993422744
 30
0.0
 11
1587.156168583049
 21
2429.999993422744
 31
0.0
  0
LINE
  5
44C8
330
6168
100
AcDbEntity
  8
0
100
AcDbLine
 10
1485.156168583048
 20
2429.999993422744
 30
0.0
 11
1555.156168583048
 21
2429.999993422744
 31
0.0
  0
ARC
  5
44C9
330
6168
100
AcDbEntity
  8
0
100
AcDbCircle
 10
1509.856168583048
 20
2420.999993422745
 30
0.0
 40
2.0
100
AcDbArc
 50
0.0
 51
90.0
  0
ARC
  5
44CA
330
6168
100
AcDbEntity
  8
0
100
AcDbCircle
 10
1509.856168583048
 20
2408.133924675426
 30
0.0
 40
2.0
100
AcDbArc
 50
262.3377443392409
 51
0.0
  0
LINE
  5
44CB
330
6168
100
AcDbEntity
  8
0
100
AcDbLine
 10
1511.856168583047
 20
2420.999993422745
 30
0.0
 11
1511.856168583047
 21
2408.133924675426
 31
0.0
  0
LINE
  5
44CC
330
6168
100
AcDbEntity
  8
0
100
AcDbLine
 10
1558.656168583048
 20
2419.499993422745
 30
0.0
 11
1558.656168583049
 21
2397.999993422745
 31
0.0
  0
LINE
  5
44CD
330
6168
100
AcDbEntity
  8
0
100
AcDbLine
 10
1555.156168583048
 20
2429.999993422744
 30
0.0
 11
1555.156168583049
 21
2397.999993422745
 31
0.0
  0
LINE
  5
44CE
330
6168
100
AcDbEntity
  8
0
100
AcDbLine
 10
1550.656168583048
 20
2429.999993422744
 30
0.0
 11
1550.656168583049
 21
2397.999993422745
 31
0.0
  0
LINE
  5
44CF
330
6168
100
AcDbEntity
  8
0
100
AcDbLine
 10
1566.156168583048
 20
2417.999993422745
 30
0.0
 11
1566.156168583048
 21
2397.999993422745
 31
0.0
  0
LINE
  5
44D0
330
6168
100
AcDbEntity
  8
0
100
AcDbLine
 10
1539.516646583048
 20
2391.07177702744
 30
0.0
 11
1550.656168583048
 21
2391.07177702744
 31
0.0
  0
LINE
  5
44D1
330
6168
100
AcDbEntity
  8
0
100
AcDbLine
 10
1539.516646583048
 20
2411.856377027441
 30
0.0
 11
1550.656168583048
 21
2411.856377027441
 31
0.0
  0
LINE
  5
44D2
330
6168
100
AcDbEntity
  8
0
100
AcDbLine
 10
1539.516646583048
 20
2404.92819702744
 30
0.0
 11
1550.656168583048
 21
2404.92819702744
 31
0.0
  0
ARC
  5
44D3
330
6168
100
AcDbEntity
  8
0
100
AcDbCircle
 10
1543.246634583048
 20
2408.39228702744
 30
0.0
 40
5.090450299999996
100
AcDbArc
 50
137.1166799999828
 51
222.8833600000157
  0
LINE
  5
44D4
330
6168
100
AcDbEntity
  8
0
100
AcDbLine
 10
1558.656168583048
 20
2409.799993422744
 30
0.0
 11
1555.156168583048
 21
2409.799993422744
 31
0.0
  0
ARC
  5
44D5
330
6168
100
AcDbEntity
  8
0
100
AcDbCircle
 10
1556.477348583048
 20
2397.99998702744
 30
0.0
 40
18.321183
100
AcDbArc
 50
157.780669999996
 51
202.2192899999847
  0
LINE
  5
44D6
330
6168
100
AcDbEntity
  8
0
100
AcDbLine
 10
1558.656168583048
 20
2419.499993422745
 30
0.0
 11
1566.156168583048
 21
2419.499993422745
 31
0.0
  0
LINE
  5
44D7
330
6168
100
AcDbEntity
  8
0
100
AcDbLine
 10
1566.156168583048
 20
2419.499993422745
 30
0.0
 11
1566.156168583048
 21
2417.999993422745
 31
0.0
  0
ARC
  5
44D8
330
6168
100
AcDbEntity
  8
0
100
AcDbCircle
 10
1511.856168583047
 20
2422.999993422744
 30
0.0
 40
17.0
100
AcDbArc
 50
187.6622556607582
 51
262.3377443392409
  0
ARC
  5
44D9
330
6168
100
AcDbEntity
  8
0
100
AcDbCircle
 10
1496.990099835729
 20
2420.999993422745
 30
0.0
 40
2.0
100
AcDbArc
 50
90.0
 51
187.6622556607582
  0
LINE
  5
44DA
330
6168
100
AcDbEntity
  8
0
100
AcDbLine
 10
1509.856168583048
 20
2422.999993422744
 30
0.0
 11
1496.990099835729
 21
2422.999993422744
 31
0.0
  0
ARC
  5
4C3A
330
6168
100
AcDbEntity
  8
0
100
AcDbCircle
 10
684.999955422924
 20
1667.735933378358
 30
0.0
 40
1.0
100
AcDbArc
 50
270.0
 51
90.0
  0
ARC
  5
4C3B
330
6168
100
AcDbEntity
  8
0
100
AcDbCircle
 10
674.999955422924
 20
1689.479490593159
 30
0.0
 40
10.0
100
AcDbArc
 50
0.0
 51
14.32271997981546
  0
LINE
  5
4C3C
330
6168
100
AcDbEntity
  8
0
100
AcDbLine
 10
684.999955422924
 20
1658.735933378357
 30
0.0
 11
684.999955422924
 21
1666.735933378358
 31
0.0
  0
LINE
  5
4C3D
330
6168
100
AcDbEntity
  8
0
100
AcDbLine
 10
684.999955422924
 20
1668.735933378358
 30
0.0
 11
684.999955422924
 21
1689.479490593159
 31
0.0
  0
LINE
  5
4C3E
330
6168
100
AcDbEntity
  8
0
100
AcDbLine
 10
684.689132529024
 20
1691.953323046159
 30
0.0
 11
678.9999554222239
 21
1714.235933378757
 31
0.0
  0
ARC
  5
4C3F
330
6168
100
AcDbEntity
  8
0
100
AcDbCircle
 10
677.9999554222239
 20
1715.235933378758
 30
0.0
 40
1.0
100
AcDbArc
 50
0.0
 51
90.0
  0
LINE
  5
4C40
330
6168
100
AcDbEntity
  8
0
100
AcDbLine
 10
678.9999554222239
 20
1714.235933378757
 30
0.0
 11
678.9999554222239
 21
1715.235933378758
 31
0.0
  0
LINE
  5
4C41
330
6168
100
AcDbEntity
  8
0
100
AcDbLine
 10
649.9999554235246
 20
1668.735933378358
 30
0.0
 11
684.999955422924
 21
1668.735933378358
 31
0.0
  0
LINE
  5
4C42
330
6168
100
AcDbEntity
  8
0
100
AcDbLine
 10
649.9999554235246
 20
1666.735933378358
 30
0.0
 11
684.999955422924
 21
1666.735933378358
 31
0.0
  0
LINE
  5
4C43
330
6168
100
AcDbEntity
  8
0
100
AcDbLine
 10
649.9999554235246
 20
1658.735933378357
 30
0.0
 11
684.999955422924
 21
1658.735933378357
 31
0.0
  0
LINE
  5
4C44
330
6168
100
AcDbEntity
  8
0
100
AcDbLine
 10
649.9999554235246
 20
1716.235933378758
 30
0.0
 11
677.9999554222239
 21
1716.235933378758
 31
0.0
  0
LINE
  5
4C45
330
6168
100
AcDbEntity
  8
0
100
AcDbLine
 10
679.9999554239083
 20
1626.235933378749
 30
0.0
 11
649.9999554235246
 21
1626.235933378749
 31
0.0
  0
LINE
  5
4C46
330
6168
100
AcDbEntity
  8
0
100
AcDbLine
 10
679.9999554239083
 20
1626.235933378749
 30
0.0
 11
679.9999554239083
 21
1639.235933378749
 31
0.0
  0
LINE
  5
4C48
330
6168
100
AcDbEntity
  8
0
100
AcDbLine
 10
678.9999554235246
 20
1639.235933378748
 30
0.0
 11
678.9999554235246
 21
1658.735933378897
 31
0.0
  0
LINE
  5
4C49
330
6168
100
AcDbEntity
  8
0
100
AcDbLine
 10
679.9999554239083
 20
1639.235933378749
 30
0.0
 11
679.9999554239083
 21
1637.235933378749
 31
0.0
  0
LINE
  5
4C4A
330
6168
100
AcDbEntity
  8
0
100
AcDbLine
 10
679.9999554239083
 20
1639.235933378749
 30
0.0
 11
649.9999554235246
 21
1639.235933378749
 31
0.0
  0
LINE
  5
4C4B
330
6168
100
AcDbEntity
  8
0
100
AcDbLine
 10
649.9999554235246
 20
1658.735933378897
 30
0.0
 11
678.9999554235246
 21
1658.735933378897
 31
0.0
  0
LINE
  5
4C4C
330
6168
100
AcDbEntity
  8
0
100
AcDbLine
 10
666.9999554235246
 20
1717.235933378749
 30
0.0
 11
666.9999554235246
 21
1716.235933378758
 31
0.0
  0
LINE
  5
4C4D
330
6168
100
AcDbEntity
  8
0
100
AcDbLine
 10
666.9999554235246
 20
1717.235933378749
 30
0.0
 11
649.9999554235246
 21
1717.235933378749
 31
0.0
  0
ARC
  5
4C4E
330
6168
100
AcDbEntity
  8
0
100
AcDbCircle
 10
614.9999554241247
 20
1667.735933378358
 30
0.0
 40
1.0
100
AcDbArc
 50
90.0
 51
270.0
  0
ARC
  5
4C4F
330
6168
100
AcDbEntity
  8
0
100
AcDbCircle
 10
624.9999554241249
 20
1689.479490593159
 30
0.0
 40
10.0
100
AcDbArc
 50
165.6772800201844
 51
180.0
  0
LINE
  5
4C50
330
6168
100
AcDbEntity
  8
0
100
AcDbLine
 10
614.9999554241247
 20
1658.735933378357
 30
0.0
 11
614.9999554241247
 21
1666.735933378358
 31
0.0
  0
LINE
  5
4C51
330
6168
100
AcDbEntity
  8
0
100
AcDbLine
 10
614.9999554241247
 20
1668.735933378358
 30
0.0
 11
614.9999554241247
 21
1689.479490593159
 31
0.0
  0
LINE
  5
4C52
330
6168
100
AcDbEntity
  8
0
100
AcDbLine
 10
615.3107783180248
 20
1691.953323046159
 30
0.0
 11
620.999955424824
 21
1714.235933378757
 31
0.0
  0
ARC
  5
4C53
330
6168
100
AcDbEntity
  8
0
100
AcDbCircle
 10
621.999955424824
 20
1715.235933378758
 30
0.0
 40
1.0
100
AcDbArc
 50
90.0
 51
180.0
  0
LINE
  5
4C54
330
6168
100
AcDbEntity
  8
0
100
AcDbLine
 10
620.999955424824
 20
1714.235933378757
 30
0.0
 11
620.999955424824
 21
1715.235933378758
 31
0.0
  0
LINE
  5
4C55
330
6168
100
AcDbEntity
  8
0
100
AcDbLine
 10
649.9999554235246
 20
1668.735933378358
 30
0.0
 11
614.9999554241247
 21
1668.735933378358
 31
0.0
  0
LINE
  5
4C56
330
6168
100
AcDbEntity
  8
0
100
AcDbLine
 10
649.9999554235246
 20
1666.735933378358
 30
0.0
 11
614.9999554241247
 21
1666.735933378358
 31
0.0
  0
LINE
  5
4C57
330
6168
100
AcDbEntity
  8
0
100
AcDbLine
 10
649.9999554235246
 20
1658.735933378357
 30
0.0
 11
614.9999554241247
 21
1658.735933378357
 31
0.0
  0
LINE
  5
4C58
330
6168
100
AcDbEntity
  8
0
100
AcDbLine
 10
649.9999554235246
 20
1716.235933378758
 30
0.0
 11
621.999955424824
 21
1716.235933378758
 31
0.0
  0
LINE
  5
4C59
330
6168
100
AcDbEntity
  8
0
100
AcDbLine
 10
619.9999554231408
 20
1626.235933378749
 30
0.0
 11
649.9999554235246
 21
1626.235933378749
 31
0.0
  0
LINE
  5
4C5A
330
6168
100
AcDbEntity
  8
0
100
AcDbLine
 10
619.9999554231408
 20
1626.235933378749
 30
0.0
 11
619.9999554231408
 21
1639.235933378749
 31
0.0
  0
LINE
  5
4C5C
330
6168
100
AcDbEntity
  8
0
100
AcDbLine
 10
620.9999554235244
 20
1639.235933378749
 30
0.0
 11
620.9999554235244
 21
1658.735933378897
 31
0.0
  0
LINE
  5
4C5D
330
6168
100
AcDbEntity
  8
0
100
AcDbLine
 10
619.9999554231408
 20
1639.235933378749
 30
0.0
 11
619.9999554231408
 21
1637.235933378749
 31
0.0
  0
LINE
  5
4C5E
330
6168
100
AcDbEntity
  8
0
100
AcDbLine
 10
619.9999554231408
 20
1639.235933378749
 30
0.0
 11
649.9999554235246
 21
1639.235933378749
 31
0.0
  0
LINE
  5
4C5F
330
6168
100
AcDbEntity
  8
0
100
AcDbLine
 10
649.9999554235246
 20
1658.735933378897
 30
0.0
 11
620.9999554235244
 21
1658.735933378897
 31
0.0
  0
LINE
  5
4C60
330
6168
100
AcDbEntity
  8
0
100
AcDbLine
 10
632.9999554235246
 20
1717.235933378749
 30
0.0
 11
632.9999554235246
 21
1716.235933378758
 31
0.0
  0
LINE
  5
4C61
330
6168
100
AcDbEntity
  8
0
100
AcDbLine
 10
632.9999554235246
 20
1717.235933378749
 30
0.0
 11
649.9999554235246
 21
1717.235933378749
 31
0.0
  0
ARC
  5
4C62
330
6168
100
AcDbEntity
  8
0
100
AcDbCircle
 10
1134.999955422924
 20
1667.735933378358
 30
0.0
 40
1.0
100
AcDbArc
 50
270.0
 51
90.0
  0
ARC
  5
4C63
330
6168
100
AcDbEntity
  8
0
100
AcDbCircle
 10
1124.999955422924
 20
1689.479490593159
 30
0.0
 40
10.0
100
AcDbArc
 50
0.0
 51
14.32271997981566
  0
LINE
  5
4C64
330
6168
100
AcDbEntity
  8
0
100
AcDbLine
 10
1134.999955422924
 20
1658.735933378357
 30
0.0
 11
1134.999955422924
 21
1666.735933378358
 31
0.0
  0
LINE
  5
4C65
330
6168
100
AcDbEntity
  8
0
100
AcDbLine
 10
1134.999955422924
 20
1668.735933378358
 30
0.0
 11
1134.999955422924
 21
1689.479490593159
 31
0.0
  0
LINE
  5
4C66
330
6168
100
AcDbEntity
  8
0
100
AcDbLine
 10
1134.689132529024
 20
1691.953323046159
 30
0.0
 11
1128.999955422224
 21
1714.235933378757
 31
0.0
  0
ARC
  5
4C67
330
6168
100
AcDbEntity
  8
0
100
AcDbCircle
 10
1127.999955422224
 20
1715.235933378758
 30
0.0
 40
1.0
100
AcDbArc
 50
0.0
 51
90.0
  0
LINE
  5
4C68
330
6168
100
AcDbEntity
  8
0
100
AcDbLine
 10
1128.999955422224
 20
1714.235933378757
 30
0.0
 11
1128.999955422224
 21
1715.235933378758
 31
0.0
  0
LINE
  5
4C69
330
6168
100
AcDbEntity
  8
0
100
AcDbLine
 10
1099.999955423524
 20
1668.735933378358
 30
0.0
 11
1134.999955422924
 21
1668.735933378358
 31
0.0
  0
LINE
  5
4C6A
330
6168
100
AcDbEntity
  8
0
100
AcDbLine
 10
1099.999955423524
 20
1666.735933378358
 30
0.0
 11
1134.999955422924
 21
1666.735933378358
 31
0.0
  0
LINE
  5
4C6B
330
6168
100
AcDbEntity
  8
0
100
AcDbLine
 10
1099.999955423524
 20
1658.735933378357
 30
0.0
 11
1134.999955422924
 21
1658.735933378357
 31
0.0
  0
LINE
  5
4C6C
330
6168
100
AcDbEntity
  8
0
100
AcDbLine
 10
1099.999955423524
 20
1716.235933378758
 30
0.0
 11
1127.999955422224
 21
1716.235933378758
 31
0.0
  0
LINE
  5
4C6D
330
6168
100
AcDbEntity
  8
0
100
AcDbLine
 10
1129.999955423908
 20
1626.235933378749
 30
0.0
 11
1099.999955423524
 21
1626.235933378749
 31
0.0
  0
LINE
  5
4C6E
330
6168
100
AcDbEntity
  8
0
100
AcDbLine
 10
1129.999955423908
 20
1626.235933378749
 30
0.0
 11
1129.999955423908
 21
1639.235933378749
 31
0.0
  0
LINE
  5
4C70
330
6168
100
AcDbEntity
  8
0
100
AcDbLine
 10
1128.999955423524
 20
1639.235933378748
 30
0.0
 11
1128.999955423524
 21
1658.735933378897
 31
0.0
  0
LINE
  5
4C71
330
6168
100
AcDbEntity
  8
0
100
AcDbLine
 10
1129.999955423908
 20
1639.235933378749
 30
0.0
 11
1129.999955423908
 21
1637.235933378749
 31
0.0
  0
LINE
  5
4C72
330
6168
100
AcDbEntity
  8
0
100
AcDbLine
 10
1129.999955423908
 20
1639.235933378749
 30
0.0
 11
1099.999955423524
 21
1639.235933378749
 31
0.0
  0
LINE
  5
4C73
330
6168
100
AcDbEntity
  8
0
100
AcDbLine
 10
1099.999955423524
 20
1658.735933378897
 30
0.0
 11
1128.999955423524
 21
1658.735933378897
 31
0.0
  0
LINE
  5
4C74
330
6168
100
AcDbEntity
  8
0
100
AcDbLine
 10
1116.999955423525
 20
1717.235933378749
 30
0.0
 11
1116.999955423525
 21
1716.235933378758
 31
0.0
  0
LINE
  5
4C75
330
6168
100
AcDbEntity
  8
0
100
AcDbLine
 10
1116.999955423525
 20
1717.235933378749
 30
0.0
 11
1099.999955423524
 21
1717.235933378749
 31
0.0
  0
ARC
  5
4C76
330
6168
100
AcDbEntity
  8
0
100
AcDbCircle
 10
1064.999955424125
 20
1667.735933378358
 30
0.0
 40
1.0
100
AcDbArc
 50
90.0
 51
270.0
  0
ARC
  5
4C77
330
6168
100
AcDbEntity
  8
0
100
AcDbCircle
 10
1074.999955424125
 20
1689.479490593159
 30
0.0
 40
10.0
100
AcDbArc
 50
165.6772800201843
 51
180.0
  0
LINE
  5
4C78
330
6168
100
AcDbEntity
  8
0
100
AcDbLine
 10
1064.999955424125
 20
1658.735933378357
 30
0.0
 11
1064.999955424125
 21
1666.735933378358
 31
0.0
  0
LINE
  5
4C79
330
6168
100
AcDbEntity
  8
0
100
AcDbLine
 10
1064.999955424125
 20
1668.735933378358
 30
0.0
 11
1064.999955424125
 21
1689.479490593159
 31
0.0
  0
LINE
  5
4C7A
330
6168
100
AcDbEntity
  8
0
100
AcDbLine
 10
1065.310778318025
 20
1691.953323046159
 30
0.0
 11
1070.999955424824
 21
1714.235933378757
 31
0.0
  0
ARC
  5
4C7B
330
6168
100
AcDbEntity
  8
0
100
AcDbCircle
 10
1071.999955424824
 20
1715.235933378758
 30
0.0
 40
1.0
100
AcDbArc
 50
90.0
 51
180.0
  0
LINE
  5
4C7C
330
6168
100
AcDbEntity
  8
0
100
AcDbLine
 10
1070.999955424824
 20
1714.235933378757
 30
0.0
 11
1070.999955424824
 21
1715.235933378758
 31
0.0
  0
LINE
  5
4C7D
330
6168
100
AcDbEntity
  8
0
100
AcDbLine
 10
1099.999955423524
 20
1668.735933378358
 30
0.0
 11
1064.999955424125
 21
1668.735933378358
 31
0.0
  0
LINE
  5
4C7E
330
6168
100
AcDbEntity
  8
0
100
AcDbLine
 10
1099.999955423524
 20
1666.735933378358
 30
0.0
 11
1064.999955424125
 21
1666.735933378358
 31
0.0
  0
LINE
  5
4C7F
330
6168
100
AcDbEntity
  8
0
100
AcDbLine
 10
1099.999955423524
 20
1658.735933378357
 30
0.0
 11
1064.999955424125
 21
1658.735933378357
 31
0.0
  0
LINE
  5
4C80
330
6168
100
AcDbEntity
  8
0
100
AcDbLine
 10
1099.999955423524
 20
1716.235933378758
 30
0.0
 11
1071.999955424824
 21
1716.235933378758
 31
0.0
  0
LINE
  5
4C81
330
6168
100
AcDbEntity
  8
0
100
AcDbLine
 10
1069.999955423141
 20
1626.235933378749
 30
0.0
 11
1099.999955423524
 21
1626.235933378749
 31
0.0
  0
LINE
  5
4C82
330
6168
100
AcDbEntity
  8
0
100
AcDbLine
 10
1069.999955423141
 20
1626.235933378749
 30
0.0
 11
1069.999955423141
 21
1639.235933378749
 31
0.0
  0
LINE
  5
4C84
330
6168
100
AcDbEntity
  8
0
100
AcDbLine
 10
1070.999955423524
 20
1639.235933378749
 30
0.0
 11
1070.999955423524
 21
1658.735933378897
 31
0.0
  0
LINE
  5
4C85
330
6168
100
AcDbEntity
  8
0
100
AcDbLine
 10
1069.999955423141
 20
1639.235933378749
 30
0.0
 11
1069.999955423141
 21
1637.235933378749
 31
0.0
  0
LINE
  5
4C86
330
6168
100
AcDbEntity
  8
0
100
AcDbLine
 10
1069.999955423141
 20
1639.235933378749
 30
0.0
 11
1099.999955423524
 21
1639.235933378749
 31
0.0
  0
LINE
  5
4C87
330
6168
100
AcDbEntity
  8
0
100
AcDbLine
 10
1099.999955423524
 20
1658.735933378897
 30
0.0
 11
1070.999955423524
 21
1658.735933378897
 31
0.0
  0
LINE
  5
4C88
330
6168
100
AcDbEntity
  8
0
100
AcDbLine
 10
1082.999955423525
 20
1717.235933378749
 30
0.0
 11
1082.999955423525
 21
1716.235933378758
 31
0.0
  0
LINE
  5
4C89
330
6168
100
AcDbEntity
  8
0
100
AcDbLine
 10
1082.999955423525
 20
1717.235933378749
 30
0.0
 11
1099.999955423524
 21
1717.235933378749
 31
0.0
  0
LINE
  5
4CC8
330
6168
100
AcDbEntity
  8
0
100
AcDbLine
 10
80.0
 20
2808.0
 30
0.0
 11
1880.0
 21
2808.0
 31
0.0
  0
LINE
  5
4CE1
330
6168
100
AcDbEntity
  8
0
100
AcDbLine
 10
80.0
 20
2808.0
 30
0.0
 11
80.0
 21
-0.0000000000000089
 31
0.0
  0
LINE
  5
4CE2
330
6168
100
AcDbEntity
  8
0
100
AcDbLine
 10
1880.0
 20
2808.0
 30
0.0
 11
1880.0
 21
-0.000000000000453
 31
0.0
  0
LINE
  5
4D6A
330
6168
100
AcDbEntity
  8
0
100
AcDbLine
 10
80.0
 20
0.0
 30
0.0
 11
1880.0
 21
0.0
 31
0.0
  0
LINE
  5
4D6B
330
6168
100
AcDbEntity
  8
0
100
AcDbLine
 10
80.0
 20
0.0
 30
0.0
 11
1880.0
 21
0.0
 31
0.0
  0
LINE
  5
509E
330
6168
100
AcDbEntity
  8
0
100
AcDbLine
 10
559.9999554235246
 20
2370.000016514891
 30
0.0
 11
559.9999554235246
 21
2129.99996372712
 31
0.0
  0
LINE
  5
50A0
330
6168
100
AcDbEntity
  8
0
100
AcDbLine
 10
499.9999554235246
 20
2370.000031378578
 30
0.0
 11
499.9999554235246
 21
2129.999948863432
 31
0.0
  0
LINE
  5
50A4
330
6168
100
AcDbEntity
  8
0
100
AcDbLine
 10
499.9999554235246
 20
2370.000031378578
 30
0.0
 11
559.9999554235246
 21
2370.000016514891
 31
0.0
  0
LINE
  5
50A5
330
6168
100
AcDbEntity
  8
0
100
AcDbLine
 10
1059.999955423524
 20
2370.000019772024
 30
0.0
 11
1059.999955423524
 21
2115.999966984253
 31
0.0
  0
LINE
  5
50A6
330
6168
100
AcDbEntity
  8
0
100
AcDbLine
 10
999.9999554235246
 20
2370.000034635712
 30
0.0
 11
999.9999554235246
 21
2115.999952120564
 31
0.0
  0
LINE
  5
50A7
330
6168
100
AcDbEntity
  8
0
100
AcDbLine
 10
1059.999955423524
 20
2370.000016514891
 30
0.0
 11
1059.999955423524
 21
2129.99996372712
 31
0.0
  0
LINE
  5
50A9
330
6168
100
AcDbEntity
  8
0
100
AcDbLine
 10
999.9999554235246
 20
2370.000031378578
 30
0.0
 11
999.9999554235246
 21
2129.999948863432
 31
0.0
  0
LINE
  5
50AC
330
6168
100
AcDbEntity
  8
0
100
AcDbLine
 10
999.9999554235246
 20
2370.000031378578
 30
0.0
 11
1059.999955423524
 21
2370.000016514891
 31
0.0
  0
TEXT
  5
51A2
330
6168
100
AcDbEntity
  8
0
100
AcDbText
 10
1295.913004016016
 20
2215.767653062684
 30
0.0
 40
24.0
  1
「配管側」ラベル
 50
89.99999656979346
100
AcDbText
  0
LINE
  5
51A3
330
6168
100
AcDbEntity
  8
0
100
AcDbLine
 10
1210.52400066877
 20
2238.699671347606
 30
0.0
 11
1284.295363620594
 21
2184.781329813241
 31
0.0
  0
LINE
  5
51A5
330
6168
100
AcDbEntity
  8
0
100
AcDbLine
 10
1284.295363620594
 20
2184.781329813241
 30
0.0
 11
1284.295363620594
 21
2209.449991923278
 31
0.0
  0
LINE
  5
51A6
330
6168
100
AcDbEntity
  8
0
100
AcDbLine
 10
1187.361751364057
 20
2287.947536930298
 30
0.0
 11
1202.02862821647
 21
2287.947536930298
 31
0.0
  0
LINE
  5
51A7
330
6168
100
AcDbEntity
  8
0
100
AcDbLine
 10
1187.361751364057
 20
2214.990516089324
 30
0.0
 11
1202.02862821647
 21
2214.990516089324
 31
0.0
  0
LINE
  5
51A8
330
6168
100
AcDbEntity
  8
0
100
AcDbLine
 10
1187.361751364057
 20
2287.947536930298
 30
0.0
 11
1187.361751364057
 21
2214.990516089324
 31
0.0
  0
LINE
  5
51A9
330
6168
100
AcDbEntity
  8
0
100
AcDbLine
 10
1202.02862821647
 20
2287.947536930298
 30
0.0
 11
1202.02862821647
 21
2214.990516089324
 31
0.0
  0
LINE
  5
54B4
330
6168
100
AcDbEntity
  8
0
100
AcDbLine
 10
1029.999967274749
 20
1114.759381015807
 30
0.0
 11
1029.999967274749
 21
1239.836081774196
 31
0.0
  0
LINE
  5
54B5
330
6168
100
AcDbEntity
  8
0
100
AcDbLine
 10
529.9999672747493
 20
1114.759446960268
 30
0.0
 11
529.9999672747493
 21
1239.836081774196
 31
0.0
  0
LINE
  5
54B6
330
6168
100
AcDbEntity
  8
0
100
AcDbLine
 10
1009.999967274749
 20
1221.836081774196
 30
0.0
 11
549.9999672747493
 21
1221.836081774196
 31
0.0
  0
LINE
  5
54BA
330
6168
100
AcDbEntity
  8
0
100
AcDbLine
 10
1029.999967274749
 20
1221.836081774196
 30
0.0
 11
1009.999967274749
 21
1216.477097925574
 31
0.0
  0
LINE
  5
54BB
330
6168
100
AcDbEntity
  8
0
100
AcDbLine
 10
1029.999967274749
 20
1221.836081774196
 30
0.0
 11
1009.999967274749
 21
1227.195065622818
 31
0.0
  0
LINE
  5
54BC
330
6168
100
AcDbEntity
  8
0
100
AcDbLine
 10
1009.999967274749
 20
1221.836081774196
 30
0.0
 11
1029.999967274749
 21
1221.836081774196
 31
0.0
  0
LINE
  5
5BFB
330
6168
100
AcDbEntity
  8
0
100
AcDbLine
 10
529.9999672747493
 20
1221.836081774196
 30
0.0
 11
549.9999672747493
 21
1227.195065622818
 31
0.0
  0
LINE
  5
5BFC
330
6168
100
AcDbEntity
  8
0
100
AcDbLine
 10
529.9999672747493
 20
1221.836081774196
 30
0.0
 11
549.9999672747493
 21
1216.477097925574
 31
0.0
  0
LINE
  5
5BFD
330
6168
100
AcDbEntity
  8
0
100
AcDbLine
 10
549.9999672747493
 20
1221.836081774196
 30
0.0
 11
529.9999672747493
 21
1221.836081774196
 31
0.0
  0
TEXT
  5
5BFE
330
6168
100
AcDbEntity
  8
0
100
AcDbText
 10
750.8333006080829
 20
1234.336081774196
 30
0.0
 40
25.0
  1
500
100
AcDbText
1001
ACAD
1000
MTEXTBEGIN
1070
    73
1070
     1
1070
    44
1040
1.0
1070
    74
1070
     0
1000
MTEXTEND
  0
TEXT
  5
5BFF
330
6168
100
AcDbEntity
  8
0
100
AcDbText
 10
568.8871300548762
 20
695.2515867782068
 30
0.0
 40
25.0
  1
4-∅20
100
AcDbText
1001
ACAD
1000
MTEXTBEGIN
1070
    73
1070
     1
1070
    44
1040
1.0
1070
    74
1070
     0
1000
MTEXTEND
  0
LINE
  5
5C00
330
6168
100
AcDbEntity
  8
0
100
AcDbLine
 10
507.0641893432251
 20
1091.823669028744
 30
0.0
 11
171.5269563849651
 21
1091.823669028744
 31
0.0
  0
LINE
  5
5C01
330
6168
100
AcDbEntity
  8
0
100
AcDbLine
 10
507.0641893432251
 20
777.8236029950643
 30
0.0
 11
171.5269563849651
 21
777.8236029950643
 31
0.0
  0
LINE
  5
5C02
330
6168
100
AcDbEntity
  8
0
100
AcDbLine
 10
189.5269563849651
 20
1071.823669028744
 30
0.0
 11
189.5269563849651
 21
797.8236029950647
 31
0.0
  0
LINE
  5
5C06
330
6168
100
AcDbEntity
  8
0
100
AcDbLine
 10
529.9999672747493
 20
777.8236029950636
 30
0.0
 11
540.1302484070896
 21
759.7654715283383
 31
0.0
  0
LINE
  5
5C07
330
6168
100
AcDbEntity
  8
0
100
AcDbLine
 10
529.9999672747493
 20
777.8236029950636
 30
0.0
 11
529.7439823494719
 21
757.1196618338301
 31
0.0
  0
LINE
  5
5C08
330
6168
100
AcDbEntity
  8
0
100
AcDbLine
 10
534.9371153782808
 20
758.4425666810841
 30
0.0
 11
529.9999672747493
 21
777.8236029950636
 31
0.0
  0
LINE
  5
5C09
330
6168
100
AcDbEntity
  8
0
100
AcDbLine
 10
1209.99997629755
 20
2407.499911358386
 30
0.0
 11
1209.99997629755
 21
2647.999949101932
 31
0.0
  0
LINE
  5
5C0A
330
6168
100
AcDbEntity
  8
0
100
AcDbLine
 10
350.0
 20
2407.500000000009
 30
0.0
 11
350.0
 21
2647.999949101932
 31
0.0
  0
LINE
  5
5C0B
330
6168
100
AcDbEntity
  8
0
100
AcDbLine
 10
1189.99997629755
 20
2629.999949101931
 30
0.0
 11
370.0
 21
2629.999949101931
 31
0.0
  0
LINE
  5
5C0F
330
6168
100
AcDbEntity
  8
0
100
AcDbLine
 10
372.9999791759801
 20
2430.0
 30
0.0
 11
131.9999554235242
 21
2430.0
 31
0.0
  0
LINE
  5
5C10
330
6168
100
AcDbEntity
  8
0
100
AcDbLine
 10
372.4999791759791
 20
2056.000164039522
 30
0.0
 11
131.9999554235241
 21
2056.000164039522
 31
0.0
  0
LINE
  5
5C11
330
6168
100
AcDbEntity
  8
0
100
AcDbLine
 10
149.9999554235242
 20
2410.0
 30
0.0
 11
149.9999554235242
 21
2076.000164039522
 31
0.0
  0
LINE
  5
5C15
330
6168
100
AcDbEntity
  8
0
100
AcDbLine
 10
529.9999554235246
 20
2410.000026394981
 30
0.0
 11
531.8489405894943
 21
2420.186337347844
 31
0.0
  0
LINE
  5
5C16
330
6168
100
AcDbEntity
  8
0
100
AcDbLine
 10
529.9999554235246
 20
2410.000026394981
 30
0.0
 11
536.6943790249071
 21
2417.897137868023
 31
0.0
  0
LINE
  5
5C17
330
6168
100
AcDbEntity
  8
0
100
AcDbLine
 10
534.2716598072009
 20
2419.041737607934
 30
0.0
 11
529.9999554235246
 21
2410.000026394981
 31
0.0
  0
LINE
  5
5C18
330
6168
100
AcDbEntity
  8
0
100
AcDbLine
 10
349.0
 20
1637.235933378748
 30
0.0
 11
231.9999554235241
 21
1637.235933378748
 31
0.0
  0
LINE
  5
5C19
330
6168
100
AcDbEntity
  8
0
100
AcDbLine
 10
248.9999554235241
 20
1607.235933378749
 30
0.0
 11
231.9999554235241
 21
1607.235933378749
 31
0.0
  0
LINE
  5
5C1A
330
6168
100
AcDbEntity
  8
0
100
AcDbLine
 10
249.9999554235242
 20
1637.235933378748
 30
0.0
 11
249.9999554235242
 21
1607.235933378749
 31
0.0
  0
LINE
  5
5C1E
330
6168
100
AcDbEntity
  8
0
100
AcDbLine
 10
349.0000000000001
 20
1717.23593337875
 30
0.0
 11
231.9999554235248
 21
1717.23593337875
 31
0.0
  0
LINE
  5
5C1F
330
6168
100
AcDbEntity
  8
0
100
AcDbLine
 10
248.9999554235247
 20
1747.235933378751
 30
0.0
 11
231.9999554235248
 21
1747.235933378751
 31
0.0
  0
LINE
  5
5C20
330
6168
100
AcDbEntity
  8
0
100
AcDbLine
 10
249.9999554235248
 20
1717.23593337875
 30
0.0
 11
249.9999554235248
 21
1747.235933378751
 31
0.0
  0
LINE
  5
5C21
330
6168
100
AcDbEntity
  8
0
100
AcDbLine
 10
249.9999554235248
 20
1747.235933378751
 30
0.0
 11
249.9999554235248
 21
1804.735933378751
 31
0.0
  0
LINE
  5
5C25
330
6168
100
AcDbEntity
  8
0
100
AcDbLine
 10
349.0000000000001
 20
1747.235933378751
 30
0.0
 11
123.3826970812025
 21
1747.235933378751
 31
0.0
  0
LINE
  5
5C26
330
6168
100
AcDbEntity
  8
0
100
AcDbLine
 10
352.0
 20
1607.23593337875
 30
0.0
 11
123.3826970812025
 21
1607.23593337875
 31
0.0
  0
LINE
  5
5C27
330
6168
100
AcDbEntity
  8
0
100
AcDbLine
 10
141.3826970812026
 20
1727.235933378751
 30
0.0
 11
141.3826970812026
 21
1627.23593337875
 31
0.0
  0
CIRCLE
  5
5C2B
330
6168
100
AcDbEntity
  8
0
100
AcDbCircle
 10
382.0
 20
2088.000122475619
 30
0.0
 40
12.0000000000005
  0
CIRCLE
  5
5C2D
330
6168
100
AcDbEntity
  8
0
100
AcDbCircle
 10
382.0
 20
2398.000061954071
 30
0.0
 40
12.0000000000005
  0
CIRCLE
  5
5C2F
330
6168
100
AcDbEntity
  8
0
100
AcDbCircle
 10
382.0
 20
2398.000041563901
 30
0.0
 40
12.0000000000005
  0
LINE
  5
5C31
330
6168
100
AcDbEntity
  8
0
100
AcDbLine
 10
899.9999672747494
 20
1742.23593337875
 30
0.0
 11
905.358951123372
 21
1762.23593337875
 31
0.0
  0
LINE
  5
5C32
330
6168
100
AcDbEntity
  8
0
100
AcDbLine
 10
899.9999672747494
 20
1742.23593337875
 30
0.0
 11
914.6409834261262
 21
1756.876949530127
 31
0.0
  0
LINE
  5
5C33
330
6168
100
AcDbEntity
  8
0
100
AcDbLine
 10
909.9999672747495
 20
1759.556441454438
 30
0.0
 11
899.9999672747494
 21
1742.23593337875
 31
0.0
  0
CIRCLE
  5
5C34
330
6168
100
AcDbEntity
  8
0
100
AcDbCircle
 10
1177.99997629755
 20
2088.000033833997
 30
0.0
 40
12.0000000000005
  0
CIRCLE
  5
5C36
330
6168
100
AcDbEntity
  8
0
100
AcDbCircle
 10
1177.99997629755
 20
2397.999952922278
 30
0.0
 40
12.0000000000005
  0
LINE
  5
5C38
330
6168
100
AcDbEntity
  8
0
  6
ByBlock
 62
     0
100
AcDbLine
 10
1207.361786388702
 20
2234.373112875148
 30
0.0
 11
1194.377064481139
 21
2250.501215812317
 31
0.0
  0
LINE
  5
5C39
330
6168
100
AcDbEntity
  8
0
  6
ByBlock
 62
     0
100
AcDbLine
 10
1194.377064481139
 20
2250.501215812317
 30
0.0
 11
1213.686214948839
 21
2243.026229820063
 31
0.0
  0
LINE
  5
5C3A
330
6168
100
AcDbEntity
  8
0
  6
ByBlock
 62
     0
100
AcDbLine
 10
1194.377064481139
 20
2250.501215812317
 30
0.0
 11
1210.52400066877
 21
2238.699671347605
 31
0.0
  0
LINE
  5
5C3B
330
6168
100
AcDbEntity
  8
0
100
AcDbLine
 10
189.5269563849651
 20
1091.823669028744
 30
0.0
 11
194.8859402335872
 21
1071.823669028744
 31
0.0
  0
LINE
  5
5C3C
330
6168
100
AcDbEntity
  8
0
100
AcDbLine
 10
189.5269563849651
 20
1091.823669028744
 30
0.0
 11
184.167972536343
 21
1071.823669028744
 31
0.0
  0
LINE
  5
5C3D
330
6168
100
AcDbEntity
  8
0
100
AcDbLine
 10
189.5269563849651
 20
1071.823669028744
 30
0.0
 11
189.5269563849651
 21
1091.823669028744
 31
0.0
  0
LINE
  5
5C3E
330
6168
100
AcDbEntity
  8
0
100
AcDbLine
 10
189.5269563849651
 20
777.8236029950643
 30
0.0
 11
184.167972536343
 21
797.8236029950643
 31
0.0
  0
LINE
  5
5C3F
330
6168
100
AcDbEntity
  8
0
100
AcDbLine
 10
189.5269563849651
 20
777.8236029950643
 30
0.0
 11
194.8859402335872
 21
797.8236029950643
 31
0.0
  0
LINE
  5
5C40
330
6168
100
AcDbEntity
  8
0
100
AcDbLine
 10
189.5269563849651
 20
797.8236029950643
 30
0.0
 11
189.5269563849651
 21
777.8236029950643
 31
0.0
  0
TEXT
  5
5C41
330
6168
100
AcDbEntity
  8
0
100
AcDbText
 10
177.026956384965
 20
905.6569693452372
 30
0.0
 40
25.0
  1
314
 50
90.0
100
AcDbText
1001
ACAD
1000
MTEXTBEGIN
1070
    73
1070
     1
1070
    44
1040
1.0
1070
    74
1070
     0
1000
MTEXTEND
  0
LINE
  5
5C42
330
6168
100
AcDbEntity
  8
0
100
AcDbLine
 10
1209.99997629755
 20
2629.999949101931
 30
0.0
 11
1189.99997629755
 21
2624.64096525331
 31
0.0
  0
LINE
  5
5C43
330
6168
100
AcDbEntity
  8
0
100
AcDbLine
 10
1209.99997629755
 20
2629.999949101931
 30
0.0
 11
1189.99997629755
 21
2635.358932950553
 31
0.0
  0
LINE
  5
5C44
330
6168
100
AcDbEntity
  8
0
100
AcDbLine
 10
1189.99997629755
 20
2629.999949101931
 30
0.0
 11
1209.99997629755
 21
2629.999949101931
 31
0.0
  0
LINE
  5
5C45
330
6168
100
AcDbEntity
  8
0
100
AcDbLine
 10
350.0
 20
2629.999949101931
 30
0.0
 11
370.0
 21
2635.358932950553
 31
0.0
  0
LINE
  5
5C46
330
6168
100
AcDbEntity
  8
0
100
AcDbLine
 10
350.0
 20
2629.999949101931
 30
0.0
 11
370.0
 21
2624.640965253309
 31
0.0
  0
LINE
  5
5C47
330
6168
100
AcDbEntity
  8
0
100
AcDbLine
 10
370.0
 20
2629.999949101931
 30
0.0
 11
350.0
 21
2629.999949101931
 31
0.0
  0
TEXT
  5
5C48
330
6168
100
AcDbEntity
  8
0
100
AcDbText
 10
748.749988148775
 20
2642.499949101932
 30
0.0
 40
25.0
  1
860
100
AcDbText
1001
ACAD
1000
MTEXTBEGIN
1070
    73
1070
     1
1070
    44
1040
1.0
1070
    74
1070
     0
1000
MTEXTEND
  0
LINE
  5
5C49
330
6168
100
AcDbEntity
  8
0
100
AcDbLine
 10
149.9999554235242
 20
2430.0
 30
0.0
 11
155.3589392721463
 21
2410.0
 31
0.0
  0
LINE
  5
5C4A
330
6168
100
AcDbEntity
  8
0
100
AcDbLine
 10
149.9999554235242
 20
2430.0
 30
0.0
 11
144.640971574902
 21
2410.0
 31
0.0
  0
LINE
  5
5C4B
330
6168
100
AcDbEntity
  8
0
100
AcDbLine
 10
149.9999554235242
 20
2410.0
 30
0.0
 11
149.9999554235242
 21
2430.0
 31
0.0
  0
LINE
  5
5C4C
330
6168
100
AcDbEntity
  8
0
100
AcDbLine
 10
149.9999554235242
 20
2056.000164039522
 30
0.0
 11
144.640971574902
 21
2076.000164039522
 31
0.0
  0
LINE
  5
5C4D
330
6168
100
AcDbEntity
  8
0
100
AcDbLine
 10
149.9999554235242
 20
2056.000164039522
 30
0.0
 11
155.3589392721463
 21
2076.000164039522
 31
0.0
  0
LINE
  5
5C4E
330
6168
100
AcDbEntity
  8
0
100
AcDbLine
 10
149.9999554235242
 20
2076.000164039522
 30
0.0
 11
149.9999554235242
 21
2056.000164039522
 31
0.0
  0
TEXT
  5
5C4F
330
6168
100
AcDbEntity
  8
0
100
AcDbText
 10
137.4999554235238
 20
2209.666748686428
 30
0.0
 40
25.0
  1
374
 50
90.0
100
AcDbText
1001
ACAD
1000
MTEXTBEGIN
1070
    73
1070
     1
1070
    44
1040
1.0
1070
    74
1070
     0
1000
MTEXTEND
  0
TEXT
  5
5C50
330
6168
100
AcDbEntity
  8
0
100
AcDbText
 10
237.8359159768387
 20
1552.820449481045
 30
0.0
 40
25.0
  1
30
 50
90.0
100
AcDbText
1001
ACAD
1000
MTEXTBEGIN
1070
    73
1070
     1
1070
    44
1040
1.0
1070
    74
1070
     0
1000
MTEXTEND
  0
POLYLINE
  5
5C51
330
6168
100
AcDbEntity
  8
0
  6
ByBlock
 62
     0
100
AcDb2dPolyline
 66
     1
 10
0.0
 20
0.0
 30
0.0
 70
     1
 40
10.0
 41
10.0
  0
VERTEX
  5
5D0A
330
5C51
100
AcDbEntity
  8
0
  6
ByBlock
 62
     0
100
AcDbVertex
100
AcDb2dVertex
 10
249.9999554235242
 20
1635.985933378748
 30
0.0
 42
1.0
  0
VERTEX
  5
5D0B
330
5C51
100
AcDbEntity
  8
0
  6
ByBlock
 62
     0
100
AcDbVertex
100
AcDb2dVertex
 10
249.9999554235242
 20
1638.485933378747
 30
0.0
 42
1.0
  0
SEQEND
  5
5D0C
330
5C51
100
AcDbEntity
  8
0
  6
ByBlock
 62
     0
  0
POLYLINE
  5
5C52
330
6168
100
AcDbEntity
  8
0
  6
ByBlock
 62
     0
100
AcDb2dPolyline
 66
     1
 10
0.0
 20
0.0
 30
0.0
 70
     1
 40
10.0
 41
10.0
  0
VERTEX
  5
5D0D
330
5C52
100
AcDbEntity
  8
0
  6
ByBlock
 62
     0
100
AcDbVertex
100
AcDb2dVertex
 10
249.9999554235242
 20
1608.485933378749
 30
0.0
 42
1.0
  0
VERTEX
  5
5D0E
330
5C52
100
AcDbEntity
  8
0
  6
ByBlock
 62
     0
100
AcDbVertex
100
AcDb2dVertex
 10
249.9999554235242
 20
1605.985933378749
 30
0.0
 42
1.0
  0
SEQEND
  5
5D0F
330
5C52
100
AcDbEntity
  8
0
  6
ByBlock
 62
     0
  0
POLYLINE
  5
5C53
330
6168
100
AcDbEntity
  8
0
  6
ByBlock
 62
     0
100
AcDb2dPolyline
 66
     1
 10
0.0
 20
0.0
 30
0.0
 70
     1
 40
10.0
 41
10.0
  0
VERTEX
  5
5D10
330
5C53
100
AcDbEntity
  8
0
  6
ByBlock
 62
     0
100
AcDbVertex
100
AcDb2dVertex
 10
249.9999554235248
 20
1718.48593337875
 30
0.0
 42
1.0
  0
VERTEX
  5
5D11
330
5C53
100
AcDbEntity
  8
0
  6
ByBlock
 62
     0
100
AcDbVertex
100
AcDb2dVertex
 10
249.9999554235248
 20
1715.98593337875
 30
0.0
 42
1.0
  0
SEQEND
  5
5D12
330
5C53
100
AcDbEntity
  8
0
  6
ByBlock
 62
     0
  0
POLYLINE
  5
5C54
330
6168
100
AcDbEntity
  8
0
  6
ByBlock
 62
     0
100
AcDb2dPolyline
 66
     1
 10
0.0
 20
0.0
 30
0.0
 70
     1
 40
10.0
 41
10.0
  0
VERTEX
  5
5D13
330
5C54
100
AcDbEntity
  8
0
  6
ByBlock
 62
     0
100
AcDbVertex
100
AcDb2dVertex
 10
249.9999554235248
 20
1745.985933378751
 30
0.0
 42
1.0
  0
VERTEX
  5
5D14
330
5C54
100
AcDbEntity
  8
0
  6
ByBlock
 62
     0
100
AcDbVertex
100
AcDb2dVertex
 10
249.9999554235248
 20
1748.48593337875
 30
0.0
 42
1.0
  0
SEQEND
  5
5D15
330
5C54
100
AcDbEntity
  8
0
  6
ByBlock
 62
     0
  0
TEXT
  5
5C55
330
6168
100
AcDbEntity
  8
0
100
AcDbText
 10
237.4999554235252
 20
1767.23593337875
 30
0.0
 40
25.0
  1
30
 50
90.0
100
AcDbText
  0
TEXT
  5
5C56
330
6168
100
AcDbEntity
  8
0
100
AcDbText
 10
123.382697081203
 20
1577.414504807321
 30
0.0
 40
25.0
  1
据付時約 140
 50
90.0
100
AcDbText
  0
LINE
  5
5C57
330
6168
100
AcDbEntity
  8
0
100
AcDbLine
 10
141.3826970812024
 20
1747.235933378751
 30
0.0
 11
146.7416809298246
 21
1727.235933378751
 31
0.0
  0
LINE
  5
5C58
330
6168
100
AcDbEntity
  8
0
100
AcDbLine
 10
141.3826970812024
 20
1747.235933378751
 30
0.0
 11
136.0237132325805
 21
1727.235933378751
 31
0.0
  0
LINE
  5
5C59
330
6168
100
AcDbEntity
  8
0
100
AcDbLine
 10
141.3826970812024
 20
1727.235933378751
 30
0.0
 11
141.3826970812024
 21
1747.235933378751
 31
0.0
  0
LINE
  5
5C5A
330
6168
100
AcDbEntity
  8
0
100
AcDbLine
 10
141.3826970812026
 20
1607.23593337875
 30
0.0
 11
136.0237132325805
 21
1627.23593337875
 31
0.0
  0
LINE
  5
5C5B
330
6168
100
AcDbEntity
  8
0
100
AcDbLine
 10
141.3826970812026
 20
1607.23593337875
 30
0.0
 11
146.7416809298246
 21
1627.23593337875
 31
0.0
  0
LINE
  5
5C5C
330
6168
100
AcDbEntity
  8
0
100
AcDbLine
 10
141.3826970812026
 20
1627.23593337875
 30
0.0
 11
141.3826970812026
 21
1607.23593337875
 31
0.0
  0
LINE
  5
5C5D
330
6168
100
AcDbEntity
  8
0
100
AcDbLine
 10
388.9282032302755
 20
2100.00012247562
 30
0.0
 11
395.8564064605509
 21
2088.000122475619
 31
0.0
  0
LINE
  5
5C5E
330
6168
100
AcDbEntity
  8
0
100
AcDbLine
 10
395.8564064605509
 20
2088.000122475619
 30
0.0
 11
388.9282032302755
 21
2076.00012247562
 31
0.0
  0
LINE
  5
5C5F
330
6168
100
AcDbEntity
  8
0
100
AcDbLine
 10
388.9282032302755
 20
2076.00012247562
 30
0.0
 11
375.0717967697245
 21
2076.00012247562
 31
0.0
  0
LINE
  5
5C60
330
6168
100
AcDbEntity
  8
0
100
AcDbLine
 10
375.0717967697245
 20
2076.00012247562
 30
0.0
 11
368.1435935394489
 21
2088.000122475619
 31
0.0
  0
LINE
  5
5C61
330
6168
100
AcDbEntity
  8
0
100
AcDbLine
 10
368.1435935394489
 20
2088.000122475619
 30
0.0
 11
375.0717967697245
 21
2100.00012247562
 31
0.0
  0
LINE
  5
5C62
330
6168
100
AcDbEntity
  8
0
100
AcDbLine
 10
375.0717967697245
 20
2100.00012247562
 30
0.0
 11
388.9282032302755
 21
2100.00012247562
 31
0.0
  0
LINE
  5
5C63
330
6168
100
AcDbEntity
  8
0
100
AcDbLine
 10
388.9282032302755
 20
2386.000061954071
 30
0.0
 11
395.8564064605509
 21
2398.000061954071
 31
0.0
  0
LINE
  5
5C64
330
6168
100
AcDbEntity
  8
0
100
AcDbLine
 10
395.8564064605509
 20
2398.000061954071
 30
0.0
 11
388.9282032302755
 21
2410.000061954071
 31
0.0
  0
LINE
  5
5C65
330
6168
100
AcDbEntity
  8
0
100
AcDbLine
 10
388.9282032302755
 20
2410.000061954071
 30
0.0
 11
375.0717967697245
 21
2410.000061954071
 31
0.0
  0
LINE
  5
5C66
330
6168
100
AcDbEntity
  8
0
100
AcDbLine
 10
375.0717967697245
 20
2410.000061954071
 30
0.0
 11
368.1435935394489
 21
2398.000061954071
 31
0.0
  0
LINE
  5
5C67
330
6168
100
AcDbEntity
  8
0
100
AcDbLine
 10
368.1435935394489
 20
2398.000061954071
 30
0.0
 11
375.0717967697245
 21
2386.000061954071
 31
0.0
  0
LINE
  5
5C68
330
6168
100
AcDbEntity
  8
0
100
AcDbLine
 10
375.0717967697245
 20
2386.000061954071
 30
0.0
 11
388.9282032302755
 21
2386.000061954071
 31
0.0
  0
LINE
  5
5C69
330
6168
100
AcDbEntity
  8
0
100
AcDbLine
 10
388.9282032302755
 20
2386.000041563901
 30
0.0
 11
395.8564064605509
 21
2398.000041563901
 31
0.0
  0
LINE
  5
5C6A
330
6168
100
AcDbEntity
  8
0
100
AcDbLine
 10
395.8564064605509
 20
2398.000041563901
 30
0.0
 11
388.9282032302755
 21
2410.000041563901
 31
0.0
  0
LINE
  5
5C6B
330
6168
100
AcDbEntity
  8
0
100
AcDbLine
 10
388.9282032302755
 20
2410.000041563901
 30
0.0
 11
375.0717967697245
 21
2410.000041563901
 31
0.0
  0
LINE
  5
5C6C
330
6168
100
AcDbEntity
  8
0
100
AcDbLine
 10
375.0717967697245
 20
2410.000041563901
 30
0.0
 11
368.1435935394489
 21
2398.000041563901
 31
0.0
  0
LINE
  5
5C6D
330
6168
100
AcDbEntity
  8
0
100
AcDbLine
 10
368.1435935394489
 20
2398.000041563901
 30
0.0
 11
375.0717967697245
 21
2386.000041563901
 31
0.0
  0
LINE
  5
5C6E
330
6168
100
AcDbEntity
  8
0
100
AcDbLine
 10
375.0717967697245
 20
2386.000041563901
 30
0.0
 11
388.9282032302755
 21
2386.000041563901
 31
0.0
  0
LINE
  5
5C6F
330
6168
100
AcDbEntity
  8
0
100
AcDbLine
 10
1171.071773067274
 20
2100.000033833997
 30
0.0
 11
1164.143569836999
 21
2088.000033833997
 31
0.0
  0
LINE
  5
5C70
330
6168
100
AcDbEntity
  8
0
100
AcDbLine
 10
1164.143569836999
 20
2088.000033833997
 30
0.0
 11
1171.071773067274
 21
2076.000033833997
 31
0.0
  0
LINE
  5
5C71
330
6168
100
AcDbEntity
  8
0
100
AcDbLine
 10
1171.071773067274
 20
2076.000033833997
 30
0.0
 11
1184.928179527825
 21
2076.000033833997
 31
0.0
  0
LINE
  5
5C72
330
6168
100
AcDbEntity
  8
0
100
AcDbLine
 10
1184.928179527825
 20
2076.000033833997
 30
0.0
 11
1191.856382758101
 21
2088.000033833997
 31
0.0
  0
LINE
  5
5C73
330
6168
100
AcDbEntity
  8
0
100
AcDbLine
 10
1191.856382758101
 20
2088.000033833997
 30
0.0
 11
1184.928179527825
 21
2100.000033833997
 31
0.0
  0
LINE
  5
5C74
330
6168
100
AcDbEntity
  8
0
100
AcDbLine
 10
1184.928179527825
 20
2100.000033833997
 30
0.0
 11
1171.071773067274
 21
2100.000033833997
 31
0.0
  0
LINE
  5
5C75
330
6168
100
AcDbEntity
  8
0
100
AcDbLine
 10
1171.071773067274
 20
2385.999952922278
 30
0.0
 11
1164.143569836999
 21
2397.999952922278
 31
0.0
  0
LINE
  5
5C76
330
6168
100
AcDbEntity
  8
0
100
AcDbLine
 10
1164.143569836999
 20
2397.999952922278
 30
0.0
 11
1171.071773067274
 21
2409.999952922278
 31
0.0
  0
LINE
  5
5C77
330
6168
100
AcDbEntity
  8
0
100
AcDbLine
 10
1171.071773067274
 20
2409.999952922278
 30
0.0
 11
1184.928179527825
 21
2409.999952922278
 31
0.0
  0
LINE
  5
5C78
330
6168
100
AcDbEntity
  8
0
100
AcDbLine
 10
1184.928179527825
 20
2409.999952922278
 30
0.0
 11
1191.856382758101
 21
2397.999952922278
 31
0.0
  0
LINE
  5
5C79
330
6168
100
AcDbEntity
  8
0
100
AcDbLine
 10
1191.856382758101
 20
2397.999952922278
 30
0.0
 11
1184.928179527825
 21
2385.999952922278
 31
0.0
  0
LINE
  5
5C7A
330
6168
100
AcDbEntity
  8
0
100
AcDbLine
 10
1184.928179527825
 20
2385.999952922278
 30
0.0
 11
1171.071773067274
 21
2385.999952922278
 31
0.0
  0
TEXT
  5
5CC2
330
6168
100
AcDbEntity
  8
0
100
AcDbText
 10
361.2804177974322
 20
1513.024041791506
 30
0.0
 40
30.0
  1
※搭載機器や施工状況等によって、据付高さは若干異なる可能性があります。
100
AcDbText
  0
LINE
  5
629F
330
6168
100
AcDbEntity
  8
0
100
AcDbLine
 10
529.9999672747493
 20
1123.759446960268
 30
0.0
 11
529.9999672747493
 21
1239.836081774196
 31
0.0
  0
LINE
  5
62A0
330
6168
100
AcDbEntity
  8
0
100
AcDbLine
 10
349.9999757200352
 20
1131.823689430674
 30
0.0
 11
349.9999757200352
 21
1239.836081774196
 31
0.0
  0
LINE
  5
62A1
330
6168
100
AcDbEntity
  8
0
100
AcDbLine
 10
509.9999672747493
 20
1221.836081774196
 30
0.0
 11
369.9999757200353
 21
1221.836081774196
 31
0.0
  0
LINE
  5
62A5
330
6168
100
AcDbEntity
  8
0
100
AcDbLine
 10
1029.999984165306
 20
1123.759446960268
 30
0.0
 11
1029.999984165306
 21
1239.836081774196
 31
0.0
  0
LINE
  5
62A6
330
6168
100
AcDbEntity
  8
0
100
AcDbLine
 10
1209.999975720021
 20
1131.823689430674
 30
0.0
 11
1209.999975720021
 21
1239.836081774196
 31
0.0
  0
LINE
  5
62A7
330
6168
100
AcDbEntity
  8
0
100
AcDbLine
 10
1049.999984165306
 20
1221.836081774196
 30
0.0
 11
1189.999975720021
 21
1221.836081774196
 31
0.0
  0
LINE
  5
62AB
330
6168
100
AcDbEntity
  8
0
  6
ByBlock
100
AcDbLine
 10
509.9999672747493
 20
1227.195065574196
 30
0.0
 11
529.9999672747493
 21
1221.836081774196
 31
0.0
  0
LINE
  5
62AC
330
6168
100
AcDbEntity
  8
0
  6
ByBlock
100
AcDbLine
 10
529.9999672747493
 20
1221.836081774196
 30
0.0
 11
509.9999672747493
 21
1216.477097974196
 31
0.0
  0
LINE
  5
62AD
330
6168
100
AcDbEntity
  8
0
  6
ByBlock
100
AcDbLine
 10
529.9999672747493
 20
1221.836081774196
 30
0.0
 11
509.9999672747493
 21
1221.836081774196
 31
0.0
  0
LINE
  5
62AE
330
6168
100
AcDbEntity
  8
0
  6
ByBlock
100
AcDbLine
 10
369.9999757200353
 20
1216.477097974196
 30
0.0
 11
349.9999757200352
 21
1221.836081774196
 31
0.0
  0
LINE
  5
62AF
330
6168
100
AcDbEntity
  8
0
  6
ByBlock
100
AcDbLine
 10
349.9999757200352
 20
1221.836081774196
 30
0.0
 11
369.9999757200353
 21
1227.195065574196
 31
0.0
  0
LINE
  5
62B0
330
6168
100
AcDbEntity
  8
0
  6
ByBlock
100
AcDbLine
 10
349.9999757200352
 20
1221.836081774196
 30
0.0
 11
369.9999757200353
 21
1221.836081774196
 31
0.0
  0
TEXT
  5
62B1
330
6168
100
AcDbEntity
  8
0
100
AcDbText
 10
412.9166381640589
 20
1236.836081774196
 30
0.0
 40
25.0
  1
180
100
AcDbText
  0
LINE
  5
62B2
330
6168
100
AcDbEntity
  8
0
  6
ByBlock
100
AcDbLine
 10
1049.999984165306
 20
1216.477097974196
 30
0.0
 11
1029.999984165306
 21
1221.836081774196
 31
0.0
  0
LINE
  5
62B3
330
6168
100
AcDbEntity
  8
0
  6
ByBlock
100
AcDbLine
 10
1029.999984165306
 20
1221.836081774196
 30
0.0
 11
1049.999984165306
 21
1227.195065574196
 31
0.0
  0
LINE
  5
62B4
330
6168
100
AcDbEntity
  8
0
  6
ByBlock
100
AcDbLine
 10
1029.999984165306
 20
1221.836081774196
 30
0.0
 11
1049.999984165306
 21
1221.836081774196
 31
0.0
  0
LINE
  5
62B5
330
6168
100
AcDbEntity
  8
0
  6
ByBlock
100
AcDbLine
 10
1189.999975720021
 20
1227.195065574196
 30
0.0
 11
1209.999975720021
 21
1221.836081774196
 31
0.0
  0
LINE
  5
62B6
330
6168
100
AcDbEntity
  8
0
  6
ByBlock
100
AcDbLine
 10
1209.999975720021
 20
1221.836081774196
 30
0.0
 11
1189.999975720021
 21
1216.477097974196
 31
0.0
  0
LINE
  5
62B7
330
6168
100
AcDbEntity
  8
0
  6
ByBlock
100
AcDbLine
 10
1209.999975720021
 20
1221.836081774196
 30
0.0
 11
1189.999975720021
 21
1221.836081774196
 31
0.0
  0
TEXT
  5
62B8
330
6168
100
AcDbEntity
  8
0
100
AcDbText
 10
1092.91664660933
 20
1236.836081774196
 30
0.0
 40
25.0
  1
180
100
AcDbText
  0
ENDSEC
  0
SECTION
  2
OBJECTS
  0
DICTIONARY
  5
6105
330
0
100
AcDbDictionary
281
     1
  3
ACAD_CIP_PREVIOUS_PRODUCT_INFO
350
61C1
  3
ACAD_COLOR
350
615B
  3
ACAD_DETAILVIEWSTYLE
350
6162
  3
ACAD_FIELDLIST
350
6212
  3
ACAD_GROUP
350
6106
  3
ACAD_LAYOUT
350
615A
  3
ACAD_MATERIAL
350
6109
  3
ACAD_MLEADERSTYLE
350
615E
  3
ACAD_MLINESTYLE
350
6157
  3
ACAD_PLOTSETTINGS
350
6159
  3
ACAD_PLOTSTYLENAME
350
6107
  3
ACAD_SCALELIST
350
613B
  3
ACAD_SECTIONVIEWSTYLE
350
6160
  3
ACAD_TABLESTYLE
350
615C
  3
ACAD_VISUALSTYLE
350
6122
  3
ACDB_RECOMPOSE_DATA
350
62CA
  3
AcDbVariableDictionary
350
62BD
  3
AcmDictionary
350
61E7
  3
AMG
350
61C2
  3
AMGSNAPSETTINGS
350
6227
  0
DICTIONARY
  5
62B9
330
614D
100
AcDbDictionary
280
     1
281
     1
  3
ADSK_XREC_LAYER_RECONCILED
360
62BA
  0
DICTIONARY
  5
62BB
330
6177
100
AcDbDictionary
280
     1
281
     1
  3
ADSK_XREC_LAYER_RECONCILED
360
62BC
  0
DICTIONARY
  5
629D
330
6168
100
AcDbDictionary
280
     1
281
     1
  3
ACAD_SORTENTS
360
629E
  0
XRECORD
  5
61C1
102
{ACAD_REACTORS
330
6105
102
}
330
6105
100
AcDbXrecord
280
     1
300
AMECH_PP
300
2021
300
87400AMECH_PP_2021_0F
  0
DICTIONARY
  5
615B
102
{ACAD_REACTORS
330
6105
102
}
330
6105
100
AcDbDictionary
281
     1
  0
DICTIONARY
  5
6162
102
{ACAD_REACTORS
330
6105
102
}
330
6105
100
AcDbDictionary
281
     1
  3
Imperial24
350
6163
  0
FIELDLIST
  5
6212
102
{ACAD_REACTORS
330
6105
102
}
330
6105
100
AcDbIdSet
 90
        8
330
6210
330
6211
330
6213
330
6214
330
6218
330
6219
330
621A
330
621B
100
AcDbFieldList
  0
DICTIONARY
  5
6106
102
{ACAD_REACTORS
330
6105
102
}
330
6105
100
AcDbDictionary
281
     1
  0
DICTIONARY
  5
615A
102
{ACAD_REACTORS
330
6105
102
}
330
6105
100
AcDbDictionary
281
     1
  3
Model
350
616B
  3
レイアウト1
350
6167
  0
DICTIONARY
  5
6109
102
{ACAD_REACTORS
330
6105
102
}
330
6105
100
AcDbDictionary
281
     1
  3
ByBlock
350
6112
  3
ByLayer
350
610A
  3
Global
350
611A
  0
DICTIONARY
  5
615E
102
{ACAD_REACTORS
330
6105
102
}
330
6105
100
AcDbDictionary
281
     1
  3
Standard
350
615F
  0
DICTIONARY
  5
6157
102
{ACAD_REACTORS
330
6105
102
}
330
6105
100
AcDbDictionary
281
     1
  3
Standard
350
6158
  0
DICTIONARY
  5
6159
102
{ACAD_REACTORS
330
6105
102
}
330
6105
100
AcDbDictionary
281
     1
  0
ACDBDICTIONARYWDFLT
  5
6107
102
{ACAD_REACTORS
330
6105
102
}
330
6105
100
AcDbDictionary
281
     1
  3
Normal
350
6108
100
AcDbDictionaryWithDefault
340
6108
  0
DICTIONARY
  5
613B
102
{ACAD_REACTORS
330
6105
102
}
330
6105
100
AcDbDictionary
281
     1
  3
A0
350
613C
  3
A1
350
613D
  3
A2
350
613E
  3
A3
350
613F
  3
A4
350
6140
  3
A5
350
6141
  3
A6
350
6142
  3
A7
350
6143
  3
A8
350
6144
  3
A9
350
6145
  3
B0
350
6146
  3
B1
350
6147
  3
B2
350
6148
  3
B3
350
6149
  3
B4
350
614A
  3
B5
350
614B
  3
B6
350
614C
  0
DICTIONARY
  5
6160
102
{ACAD_REACTORS
330
6105
102
}
330
6105
100
AcDbDictionary
281
     1
  3
Imperial24
350
6161
  0
DICTIONARY
  5
615C
102
{ACAD_REACTORS
330
6105
102
}
330
6105
100
AcDbDictionary
281
     1
  3
Standard
350
615D
  0
DICTIONARY
  5
6122
102
{ACAD_REACTORS
330
6105
102
}
330
6105
100
AcDbDictionary
281
     1
  3
2dWireframe
350
6128
  3
Basic
350
6127
  3
Brighten
350
612E
  3
ColorChange
350
6132
  3
Conceptual
350
612B
  3
Dim
350
612D
  3
EdgeColorOff
350
613A
  3
Facepattern
350
6131
  3
Flat
350
6123
  3
FlatWithEdges
350
6124
  3
Gouraud
350
6125
  3
GouraudWithEdges
350
6126
  3
Hidden
350
612A
  3
JitterOff
350
6138
  3
Linepattern
350
6130
  3
OverhangOff
350
6139
  3
Realistic
350
612C
  3
Shaded
350
6137
  3
Shaded with edges
350
6136
  3
Shades of Gray
350
6133
  3
Sketchy
350
6134
  3
Thicken
350
612F
  3
Wireframe
350
6129
  3
X-Ray
350
6135
  0
XRECORD
  5
62CA
102
{ACAD_REACTORS
330
6105
102
}
330
6105
100
AcDbXrecord
280
     1
 90
        1
330
615D
  0
DICTIONARY
  5
62BD
102
{ACAD_REACTORS
330
6105
102
}
330
6105
100
AcDbDictionary
281
     1
  3
CANNOSCALE
350
62C3
  3
CMLEADERSTYLE
350
62BF
  3
CTABLESTYLE
350
62BE
  3
CVIEWDETAILSTYLE
350
62C0
  3
CVIEWSECTIONSTYLE
350
62C1
  3
LAYEREVAL
350
62C5
  3
LAYERNOTIFY
350
62C6
  3
LIGHTINGUNITS
350
62C4
  3
MSLTSCALE
350
62C2
  3
XCLIPFRAME
350
62C7
  0
DICTIONARY
  5
61E7
102
{ACAD_REACTORS
330
6105
102
}
330
6105
100
AcDbDictionary
281
     1
  3
AcmStdDictionary
350
61EE
  0
DICTIONARY
  5
61C2
102
{ACAD_REACTORS
330
6105
102
}
330
6105
100
AcDbDictionary
281
     1
  0
DICTIONARY
  5
6227
102
{ACAD_REACTORS
330
6105
102
}
330
6105
100
AcDbDictionary
281
     1
  0
XRECORD
  5
62BA
102
{ACAD_REACTORS
330
62B9
102
}
330
62B9
100
AcDbXrecord
280
     1
290
     1
  0
XRECORD
  5
62BC
102
{ACAD_REACTORS
330
62BB
102
}
330
62BB
100
AcDbXrecord
280
     1
290
     1
  0
SORTENTSTABLE
  5
629E
102
{ACAD_REACTORS
330
629D
102
}
330
629D
100
AcDbSortentsTable
330
6168
331
62A5
  5
62AF
331
62A6
  5
62B0
331
62A7
  5
62B1
331
62AB
  5
62A5
331
62AC
  5
62A6
331
62AD
  5
62A7
331
62AE
  5
62AB
331
62AF
  5
62AC
331
62B0
  5
62AD
331
62B1
  5
62AE
  0
ACDBDETAILVIEWSTYLE
  5
6163
102
{ACAD_XDICTIONARY
360
62FD
102
}
102
{ACAD_REACTORS
330
6162
330
620B
102
}
330
6162
100
AcDbModelDocViewStyle
 70
     0
  3
Imperial24
290
     0
100
AcDbDetailViewStyle
 70
     0
 71
     0
 90
        3
 71
     1
340
614E
 62
   256
 40
0.24
340
0
 62
   256
 40
0.24
300

 40
0.36
280
     3
 71
     2
340
6155
 90
       25
 62
   256
 71
     3
340
614E
 62
   256
 40
0.24
 90
        1
 40
0.75
 90
        1
300
%<\AcVar ViewType \f "%tc1">% %<\AcVar ViewDetailId>%\PSCALE %<\AcVar ViewScale \f "%sn">%
 71
     4
340
6155
 90
       25
 62
   256
340
6155
 90
       25
 62
   256
280
     0
  0
LAYOUT
  5
616B
102
{ACAD_REACTORS
330
615A
102
}
330
615A
100
AcDbPlotSettings
  1

  2
産機2F_DocuPrint 4050
  4

  6

 40
0.0
 41
0.0
 42
0.0
 43
0.0
 44
0.0
 45
0.0
 46
0.0
 47
0.0
 48
0.0
 49
0.0
140
0.0
141
0.0
142
1.0
143
1.0
 70
  1712
 72
     0
 73
     0
 74
     0
  7

 75
     0
147
1.0
 76
     0
 77
     2
 78
   300
148
0.0
149
0.0
100
AcDbLayout
  1
Model
 70
     1
 71
     0
 10
0.0
 20
0.0
 11
12.0
 21
9.0
 12
0.0
 22
0.0
 32
0.0
 14
0.0
 24
0.0
 34
0.0
 15
0.0
 25
0.0
 35
0.0
146
0.0
 13
0.0
 23
0.0
 33
0.0
 16
1.0
 26
0.0
 36
0.0
 17
0.0
 27
1.0
 37
0.0
 76
     0
330
6168
331
616C
  0
LAYOUT
  5
6167
102
{ACAD_REACTORS
330
615A
102
}
330
615A
100
AcDbPlotSettings
  1

  2
産機2F_DocuPrint 4050
  4

  6

 40
0.0
 41
0.0
 42
0.0
 43
0.0
 44
0.0
 45
0.0
 46
0.0
 47
0.0
 48
0.0
 49
0.0
140
0.0
141
0.0
142
1.0
143
1.0
 70
   688
 72
     0
 73
     0
 74
     5
  7

 75
    16
147
1.0
 76
     0
 77
     2
 78
   300
148
0.0
149
0.0
100
AcDbLayout
  1
レイアウト1
 70
     0
 71
     1
 10
0.0
 20
0.0
 11
12.0
 21
9.0
 12
0.0
 22
0.0
 32
0.0
 14
1.000000000000000E+20
 24
1.000000000000000E+20
 34
1.000000000000000E+20
 15
-1.000000000000000E+20
 25
-1.000000000000000E+20
 35
-1.000000000000000E+20
146
0.0
 13
0.0
 23
0.0
 33
0.0
 16
1.0
 26
0.0
 36
0.0
 17
0.0
 27
1.0
 37
0.0
 76
     0
330
6164
  0
MATERIAL
  5
6112
102
{ACAD_XDICTIONARY
360
6113
102
}
102
{ACAD_REACTORS
330
6109
102
}
330
6109
100
AcDbMaterial
  1
ByBlock
 72
     0
 43
0.0208333333333333
 43
0.0
 43
0.0
 43
0.0
 43
0.0
 43
0.0208333333333333
 43
0.0
 43
0.0
 43
0.0
 43
0.0
 43
1.0
 43
0.0
 43
0.0
 43
0.0
 43
0.0
 43
1.0
 77
     0
 47
0.0208333333333333
 47
0.0
 47
0.0
 47
0.0
 47
0.0
 47
0.0208333333333333
 47
0.0
 47
0.0
 47
0.0
 47
0.0
 47
1.0
 47
0.0
 47
0.0
 47
0.0
 47
0.0
 47
1.0
171
     0
 49
0.0208333333333333
 49
0.0
 49
0.0
 49
0.0
 49
0.0
 49
0.0208333333333333
 49
0.0
 49
0.0
 49
0.0
 49
0.0
 49
1.0
 49
0.0
 49
0.0
 49
0.0
 49
0.0
 49
1.0
175
     0
142
0.0208333333333333
142
0.0
142
0.0
142
0.0
142
0.0
142
0.0208333333333333
142
0.0
142
0.0
142
0.0
142
0.0
142
1.0
142
0.0
142
0.0
142
0.0
142
0.0
142
1.0
179
     0
144
0.0208333333333333
144
0.0
144
0.0
144
0.0
144
0.0
144
0.0208333333333333
144
0.0
144
0.0
144
0.0
144
0.0
144
1.0
144
0.0
144
0.0
144
0.0
144
0.0
144
1.0
147
0.0208333333333333
147
0.0
147
0.0
147
0.0
147
0.0
147
0.0208333333333333
147
0.0
147
0.0
147
0.0
147
0.0
147
1.0
147
0.0
147
0.0
147
0.0
147
0.0
147
1.0
  0
MATERIAL
  5
610A
102
{ACAD_XDICTIONARY
360
610B
102
}
102
{ACAD_REACTORS
330
6109
102
}
330
6109
100
AcDbMaterial
  1
ByLayer
 72
     0
 43
0.0208333333333333
 43
0.0
 43
0.0
 43
0.0
 43
0.0
 43
0.0208333333333333
 43
0.0
 43
0.0
 43
0.0
 43
0.0
 43
1.0
 43
0.0
 43
0.0
 43
0.0
 43
0.0
 43
1.0
 77
     0
 47
0.0208333333333333
 47
0.0
 47
0.0
 47
0.0
 47
0.0
 47
0.0208333333333333
 47
0.0
 47
0.0
 47
0.0
 47
0.0
 47
1.0
 47
0.0
 47
0.0
 47
0.0
 47
0.0
 47
1.0
171
     0
 49
0.0208333333333333
 49
0.0
 49
0.0
 49
0.0
 49
0.0
 49
0.0208333333333333
 49
0.0
 49
0.0
 49
0.0
 49
0.0
 49
1.0
 49
0.0
 49
0.0
 49
0.0
 49
0.0
 49
1.0
175
     0
142
0.0208333333333333
142
0.0
142
0.0
142
0.0
142
0.0
142
0.0208333333333333
142
0.0
142
0.0
142
0.0
142
0.0
142
1.0
142
0.0
142
0.0
142
0.0
142
0.0
142
1.0
179
     0
144
0.0208333333333333
144
0.0
144
0.0
144
0.0
144
0.0
144
0.0208333333333333
144
0.0
144
0.0
144
0.0
144
0.0
144
1.0
144
0.0
144
0.0
144
0.0
144
0.0
144
1.0
147
0.0208333333333333
147
0.0
147
0.0
147
0.0
147
0.0
147
0.0208333333333333
147
0.0
147
0.0
147
0.0
147
0.0
147
1.0
147
0.0
147
0.0
147
0.0
147
0.0
147
1.0
  0
MATERIAL
  5
611A
102
{ACAD_XDICTIONARY
360
611B
102
}
102
{ACAD_REACTORS
330
6109
102
}
330
6109
100
AcDbMaterial
  1
Global
 72
     0
 43
0.0208333333333333
 43
0.0
 43
0.0
 43
0.0
 43
0.0
 43
0.0208333333333333
 43
0.0
 43
0.0
 43
0.0
 43
0.0
 43
1.0
 43
0.0
 43
0.0
 43
0.0
 43
0.0
 43
1.0
 77
     0
 47
0.0208333333333333
 47
0.0
 47
0.0
 47
0.0
 47
0.0
 47
0.0208333333333333
 47
0.0
 47
0.0
 47
0.0
 47
0.0
 47
1.0
 47
0.0
 47
0.0
 47
0.0
 47
0.0
 47
1.0
171
     0
 49
0.0208333333333333
 49
0.0
 49
0.0
 49
0.0
 49
0.0
 49
0.0208333333333333
 49
0.0
 49
0.0
 49
0.0
 49
0.0
 49
1.0
 49
0.0
 49
0.0
 49
0.0
 49
0.0
 49
1.0
175
     0
142
0.0208333333333333
142
0.0
142
0.0
142
0.0
142
0.0
142
0.0208333333333333
142
0.0
142
0.0
142
0.0
142
0.0
142
1.0
142
0.0
142
0.0
142
0.0
142
0.0
142
1.0
179
     0
144
0.0208333333333333
144
0.0
144
0.0
144
0.0
144
0.0
144
0.0208333333333333
144
0.0
144
0.0
144
0.0
144
0.0
144
1.0
144
0.0
144
0.0
144
0.0
144
0.0
144
1.0
147
0.0208333333333333
147
0.0
147
0.0
147
0.0
147
0.0
147
0.0208333333333333
147
0.0
147
0.0
147
0.0
147
0.0
147
1.0
147
0.0
147
0.0
147
0.0
147
0.0
147
1.0
  0
MLEADERSTYLE
  5
615F
102
{ACAD_REACTORS
330
615E
102
}
330
615E
100
AcDbMLeaderStyle
170
     2
171
     1
172
     0
 90
        2
 40
0.0
 41
0.0
173
     1
 91
-1056964608
340
6153
 92
       -2
290
     1
 42
0.09
291
     1
 43
0.36
  3
Standard
 44
0.18
300

342
614E
174
     1
178
     6
175
     1
176
     0
 93
-1056964608
 45
0.18
292
     0
297
     0
 46
0.18
 94
-1056964608
 47
1.0
 49
1.0
140
1.0
293
     1
141
0.0
294
     1
177
     0
142
1.0
295
     0
296
     0
143
0.125
1001
ACAD_MLEADERVER
1070
     2
  0
MLINESTYLE
  5
6158
102
{ACAD_REACTORS
330
6157
102
}
330
6157
100
AcDbMlineStyle
  2
STANDARD
 70
     0
  3

 62
   256
 51
90.0
 52
90.0
 71
     2
 49
0.5
 62
   256
  6
BYLAYER
 49
-0.5
 62
   256
  6
BYLAYER
  0
ACDBPLACEHOLDER
  5
6108
102
{ACAD_REACTORS
330
6107
102
}
330
6107
  0
SCALE
  5
613C
102
{ACAD_REACTORS
330
613B
102
}
330
613B
100
AcDbScale
 70
     0
300
1:1
140
1.0
141
1.0
290
     1
  0
SCALE
  5
613D
102
{ACAD_REACTORS
330
613B
102
}
330
613B
100
AcDbScale
 70
     0
300
1/128" = 1'-0"
140
0.0078125
141
12.0
290
     0
  0
SCALE
  5
613E
102
{ACAD_REACTORS
330
613B
102
}
330
613B
100
AcDbScale
 70
     0
300
1/64" = 1'-0"
140
0.015625
141
12.0
290
     0
  0
SCALE
  5
613F
102
{ACAD_REACTORS
330
613B
102
}
330
613B
100
AcDbScale
 70
     0
300
1/32" = 1'-0"
140
0.03125
141
12.0
290
     0
  0
SCALE
  5
6140
102
{ACAD_REACTORS
330
613B
102
}
330
613B
100
AcDbScale
 70
     0
300
1/16" = 1'-0"
140
0.0625
141
12.0
290
     0
  0
SCALE
  5
6141
102
{ACAD_REACTORS
330
613B
102
}
330
613B
100
AcDbScale
 70
     0
300
3/32" = 1'-0"
140
0.09375
141
12.0
290
     0
  0
SCALE
  5
6142
102
{ACAD_REACTORS
330
613B
102
}
330
613B
100
AcDbScale
 70
     0
300
1/8" = 1'-0"
140
0.125
141
12.0
290
     0
  0
SCALE
  5
6143
102
{ACAD_REACTORS
330
613B
102
}
330
613B
100
AcDbScale
 70
     0
300
3/16" = 1'-0"
140
0.1875
141
12.0
290
     0
  0
SCALE
  5
6144
102
{ACAD_REACTORS
330
613B
102
}
330
613B
100
AcDbScale
 70
     0
300
1/4" = 1'-0"
140
0.25
141
12.0
290
     0
  0
SCALE
  5
6145
102
{ACAD_REACTORS
330
613B
102
}
330
613B
100
AcDbScale
 70
     0
300
3/8" = 1'-0"
140
0.375
141
12.0
290
     0
  0
SCALE
  5
6146
102
{ACAD_REACTORS
330
613B
102
}
330
613B
100
AcDbScale
 70
     0
300
1/2" = 1'-0"
140
0.5
141
12.0
290
     0
  0
SCALE
  5
6147
102
{ACAD_REACTORS
330
613B
102
}
330
613B
100
AcDbScale
 70
     0
300
3/4" = 1'-0"
140
0.75
141
12.0
290
     0
  0
SCALE
  5
6148
102
{ACAD_REACTORS
330
613B
102
}
330
613B
100
AcDbScale
 70
     0
300
1" = 1'-0"
140
1.0
141
12.0
290
     0
  0
SCALE
  5
6149
102
{ACAD_REACTORS
330
613B
102
}
330
613B
100
AcDbScale
 70
     0
300
1-1/2" = 1'-0"
140
1.5
141
12.0
290
     0
  0
SCALE
  5
614A
102
{ACAD_REACTORS
330
613B
102
}
330
613B
100
AcDbScale
 70
     0
300
3" = 1'-0"
140
3.0
141
12.0
290
     0
  0
SCALE
  5
614B
102
{ACAD_REACTORS
330
613B
102
}
330
613B
100
AcDbScale
 70
     0
300
6" = 1'-0"
140
6.0
141
12.0
290
     0
  0
SCALE
  5
614C
102
{ACAD_REACTORS
330
613B
102
}
330
613B
100
AcDbScale
 70
     0
300
1'-0" = 1'-0"
140
12.0
141
12.0
290
     0
  0
ACDBSECTIONVIEWSTYLE
  5
6161
102
{ACAD_XDICTIONARY
360
62FB
102
}
102
{ACAD_REACTORS
330
6160
330
620A
102
}
330
6160
100
AcDbModelDocViewStyle
 70
     0
  3
Imperial24
290
     0
100
AcDbSectionViewStyle
 70
     0
 71
     0
 90
       78
 71
     1
340
614E
 62
   256
 40
0.24
340
0
340
0
 62
   256
 40
0.24
300
I, O, Q, S, X, Z
 40
0.48
 90
        3
 40
0.18
 90
        1
 71
     2
340
6155
 90
       25
 62
   256
340
6155
 90
       50
 62
   256
 40
0.24
 40
0.0
 40
0.24
 71
     3
340
614E
 62
   256
 40
0.24
 90
        1
 40
0.75
 90
        1
300
%<\AcVar ViewType \f "%tc1">% %<\AcVar ViewSectionStartId>%-%<\AcVar ViewSectionEndId>%\PSCALE %<\AcVar ViewScale \f "%sn">%
 71
     4
 62
   256
 62
   257
300
ANSI31
 40
1.0
 90
        0
290
     0
290
     0
 90
        6
 40
0.0
 40
1.570796326794896
 40
0.2617993877991494
 40
1.308996938995747
 40
-0.2617993877991494
 40
1.832595714594046
  0
TABLESTYLE
  5
615D
102
{ACAD_XDICTIONARY
360
62C8
102
}
102
{ACAD_REACTORS
330
615C
102
}
330
615C
100
AcDbTableStyle
  3
Standard
 70
     0
 71
     0
 40
0.06
 41
0.06
280
     0
281
     0
  7
STANDARD
140
0.18
170
     2
 62
     0
 63
     7
283
     0
 90
      512
 91
        0
  1

274
    -2
284
     1
 64
     0
275
    -2
285
     1
 65
     0
276
    -2
286
     1
 66
     0
277
    -2
287
     1
 67
     0
278
    -2
288
     1
 68
     0
279
    -2
289
     1
 69
     0
  7
STANDARD
140
0.25
170
     5
 62
     0
 63
     7
283
     0
 90
      512
 91
        0
  1

274
    -2
284
     1
 64
     0
275
    -2
285
     1
 65
     0
276
    -2
286
     1
 66
     0
277
    -2
287
     1
 67
     0
278
    -2
288
     1
 68
     0
279
    -2
289
     1
 69
     0
  7
STANDARD
140
0.18
170
     5
 62
     0
 63
     7
283
     0
 90
      512
 91
        0
  1

274
    -2
284
     1
 64
     0
275
    -2
285
     1
 65
     0
276
    -2
286
     1
 66
     0
277
    -2
287
     1
 67
     0
278
    -2
288
     1
 68
     0
279
    -2
289
     1
 69
     0
  0
VISUALSTYLE
  5
6128
102
{ACAD_XDICTIONARY
360
62D5
102
}
102
{ACAD_REACTORS
330
6122
102
}
330
6122
100
AcDbVisualStyle
  2
2dWireframe
 70
     4
 71
     0
 72
     2
 73
     0
 90
        0
 40
-0.6
 41
-30.0
 62
     5
 63
     7
421
 16777215
 74
     1
 91
        4
 64
     7
 65
   257
 75
     1
175
     1
 42
1.0
 92
        0
 66
   257
 43
1.0
 76
     1
 77
     6
 78
     2
 67
     7
 79
     5
170
     0
171
     0
290
     0
174
     0
 93
        1
 44
0.0
173
     0
291
     0
 45
0.0
1001
ACAD
1000
AcDbSavedByObjectVersion
1070
     0
  0
VISUALSTYLE
  5
6127
102
{ACAD_XDICTIONARY
360
62D3
102
}
102
{ACAD_REACTORS
330
6122
102
}
330
6122
100
AcDbVisualStyle
  2
Basic
 70
     7
 71
     1
 72
     0
 73
     1
 90
        0
 40
-0.6
 41
-30.0
 62
     5
 63
     7
421
 16777215
 74
     0
 91
        4
 64
     7
 65
   257
 75
     1
175
     1
 42
1.0
 92
        8
 66
     7
 43
1.0
 76
     1
 77
     6
 78
     2
 67
     7
 79
     5
170
     0
171
     0
290
     0
174
     0
 93
        1
 44
0.0
173
     0
291
     1
 45
0.0
1001
ACAD
1000
AcDbSavedByObjectVersion
1070
     0
  0
VISUALSTYLE
  5
612E
102
{ACAD_XDICTIONARY
360
62E1
102
}
102
{ACAD_REACTORS
330
6122
102
}
330
6122
100
AcDbVisualStyle
  2
Brighten
 70
    12
 71
     2
 72
     2
 73
     0
 90
        0
 40
-0.6
 41
-30.0
 62
     5
 63
     7
421
 16777215
 74
     1
 91
        4
 64
     7
 65
   257
 75
     1
175
     1
 42
1.0
 92
        8
 66
     7
 43
1.0
 76
     1
 77
     6
 78
     2
 67
     7
 79
     5
170
     0
171
     0
290
     0
174
     0
 93
        1
 44
50.0
173
     0
291
     1
 45
0.0
1001
ACAD
1000
AcDbSavedByObjectVersion
1070
     0
  0
VISUALSTYLE
  5
6132
102
{ACAD_XDICTIONARY
360
62E9
102
}
102
{ACAD_REACTORS
330
6122
102
}
330
6122
100
AcDbVisualStyle
  2
ColorChange
 70
    16
 71
     2
 72
     2
 73
     3
 90
        0
 40
-0.6
 41
-30.0
 62
     5
 63
     8
421
  8421504
 74
     1
 91
        4
 64
     7
 65
   257
 75
     1
175
     1
 42
1.0
 92
        8
 66
     8
424
  8421504
 43
1.0
 76
     1
 77
     6
 78
     2
 67
     7
 79
     5
170
     0
171
     0
290
     0
174
     0
 93
        1
 44
0.0
173
     0
291
     1
 45
0.0
1001
ACAD
1000
AcDbSavedByObjectVersion
1070
     0
  0
VISUALSTYLE
  5
612B
102
{ACAD_XDICTIONARY
360
62DB
102
}
102
{ACAD_REACTORS
330
6122
102
}
330
6122
100
AcDbVisualStyle
  2
Conceptual
 70
     9
 71
     3
 72
     2
 73
     0
 90
        0
 40
-0.6
 41
-30.0
 62
     5
 63
     7
421
 16777215
 74
     2
 91
        2
 64
     7
 65
   257
 75
     1
175
     1
 42
179.0
 92
        8
 66
     7
 43
1.0
 76
     1
 77
     6
 78
     2
 67
     7
 79
     3
170
     0
171
     0
290
     0
174
     0
 93
        1
 44
0.0
173
     0
291
     0
 45
0.0
1001
ACAD
1000
AcDbSavedByObjectVersion
1070
     0
  0
VISUALSTYLE
  5
612D
102
{ACAD_XDICTIONARY
360
62DF
102
}
102
{ACAD_REACTORS
330
6122
102
}
330
6122
100
AcDbVisualStyle
  2
Dim
 70
    11
 71
     2
 72
     2
 73
     0
 90
        0
 40
-0.6
 41
-30.0
 62
     5
 63
     7
421
 16777215
 74
     1
 91
        4
 64
     7
 65
   257
 75
     1
175
     1
 42
1.0
 92
        8
 66
     7
 43
1.0
 76
     1
 77
     6
 78
     2
 67
     7
 79
     5
170
     0
171
     0
290
     0
174
     0
 93
        1
 44
-50.0
173
     0
291
     1
 45
0.0
1001
ACAD
1000
AcDbSavedByObjectVersion
1070
     0
  0
VISUALSTYLE
  5
613A
102
{ACAD_XDICTIONARY
360
62F9
102
}
102
{ACAD_REACTORS
330
6122
102
}
330
6122
100
AcDbVisualStyle
  2
EdgeColorOff
 70
    22
 71
     2
 72
     2
 73
     0
 90
        0
 40
-0.6
 41
-30.0
 62
     5
 63
     7
421
 16777215
 74
     1
 91
        4
 64
     7
 65
   257
 75
     1
175
     1
 42
1.0
 92
        8
 66
     7
 43
1.0
 76
     1
 77
     6
 78
     2
 67
     7
 79
     5
170
     0
171
     0
290
     0
174
     0
 93
        1
 44
0.0
173
     0
291
     1
 45
0.0
1001
ACAD
1000
AcDbSavedByObjectVersion
1070
     0
  0
VISUALSTYLE
  5
6131
102
{ACAD_XDICTIONARY
360
62E7
102
}
102
{ACAD_REACTORS
330
6122
102
}
330
6122
100
AcDbVisualStyle
  2
Facepattern
 70
    15
 71
     2
 72
     2
 73
     0
 90
        0
 40
-0.6
 41
-30.0
 62
     5
 63
     7
421
 16777215
 74
     1
 91
        4
 64
     7
 65
   257
 75
     1
175
     1
 42
1.0
 92
        8
 66
     7
 43
1.0
 76
     1
 77
     6
 78
     2
 67
     7
 79
     5
170
     0
171
     0
290
     0
174
     0
 93
        1
 44
0.0
173
     0
291
     1
 45
0.0
1001
ACAD
1000
AcDbSavedByObjectVersion
1070
     0
  0
VISUALSTYLE
  5
6123
102
{ACAD_XDICTIONARY
360
62CB
102
}
102
{ACAD_REACTORS
330
6122
102
}
330
6122
100
AcDbVisualStyle
  2
Flat
 70
     0
 71
     2
 72
     1
 73
     1
 90
        2
 40
-0.6
 41
30.0
 62
     5
 63
     7
421
 16777215
 74
     0
 91
        0
 64
     7
 65
   257
 75
     1
175
     1
 42
1.0
 92
        8
 66
     7
 43
1.0
 76
     1
 77
     6
 78
     2
 67
     7
 79
     5
170
     0
171
     0
290
     0
174
     0
 93
       13
 44
0.0
173
     0
291
     1
 45
0.0
1001
ACAD
1000
AcDbSavedByObjectVersion
1070
     0
  0
VISUALSTYLE
  5
6124
102
{ACAD_XDICTIONARY
360
62CD
102
}
102
{ACAD_REACTORS
330
6122
102
}
330
6122
100
AcDbVisualStyle
  2
FlatWithEdges
 70
     1
 71
     2
 72
     1
 73
     1
 90
        2
 40
-0.6
 41
30.0
 62
     5
 63
     7
421
 16777215
 74
     1
 91
        0
 64
     7
 65
   257
 75
     1
175
     1
 42
1.0
 92
        0
 66
   257
 43
1.0
 76
     1
 77
     6
 78
     2
 67
     7
 79
     5
170
     0
171
     0
290
     0
174
     0
 93
       13
 44
0.0
173
     0
291
     1
 45
0.0
1001
ACAD
1000
AcDbSavedByObjectVersion
1070
     0
  0
VISUALSTYLE
  5
6125
102
{ACAD_XDICTIONARY
360
62CF
102
}
102
{ACAD_REACTORS
330
6122
102
}
330
6122
100
AcDbVisualStyle
  2
Gouraud
 70
     2
 71
     2
 72
     2
 73
     1
 90
        2
 40
-0.6
 41
30.0
 62
     5
 63
     7
421
 16777215
 74
     0
 91
        0
 64
     7
 65
   257
 75
     1
175
     1
 42
1.0
 92
        0
 66
     7
 43
1.0
 76
     1
 77
     6
 78
     2
 67
     7
 79
     5
170
     0
171
     0
290
     0
174
     0
 93
       13
 44
0.0
173
     0
291
     1
 45
0.0
1001
ACAD
1000
AcDbSavedByObjectVersion
1070
     0
  0
VISUALSTYLE
  5
6126
102
{ACAD_XDICTIONARY
360
62D1
102
}
102
{ACAD_REACTORS
330
6122
102
}
330
6122
100
AcDbVisualStyle
  2
GouraudWithEdges
 70
     3
 71
     2
 72
     2
 73
     1
 90
        2
 40
-0.6
 41
30.0
 62
     5
 63
     7
421
 16777215
 74
     1
 91
        0
 64
     7
 65
   257
 75
     1
175
     1
 42
1.0
 92
        0
 66
   257
 43
1.0
 76
     1
 77
     6
 78
     2
 67
     7
 79
     5
170
     0
171
     0
290
     0
174
     0
 93
       13
 44
0.0
173
     0
291
     1
 45
0.0
1001
ACAD
1000
AcDbSavedByObjectVersion
1070
     0
  0
VISUALSTYLE
  5
612A
102
{ACAD_XDICTIONARY
360
62D9
102
}
102
{ACAD_REACTORS
330
6122
102
}
330
6122
100
AcDbVisualStyle
  2
Hidden
 70
     6
 71
     1
 72
     2
 73
     2
 90
        0
 40
-0.6
 41
-30.0
 62
     5
 63
     7
421
 16777215
 74
     2
 91
        2
 64
     7
 65
   257
 75
     2
175
     1
 42
40.0
 92
        0
 66
   257
 43
1.0
 76
     1
 77
     6
 78
     2
 67
     7
 79
     3
170
     0
171
     0
290
     0
174
     0
 93
        1
 44
0.0
173
     0
291
     0
 45
0.0
1001
ACAD
1000
AcDbSavedByObjectVersion
1070
     0
  0
VISUALSTYLE
  5
6138
102
{ACAD_XDICTIONARY
360
62F5
102
}
102
{ACAD_REACTORS
330
6122
102
}
330
6122
100
AcDbVisualStyle
  2
JitterOff
 70
    20
 71
     2
 72
     2
 73
     0
 90
        0
 40
-0.6
 41
-30.0
 62
     5
 63
     7
421
 16777215
 74
     1
 91
        4
 64
     7
 65
   257
 75
     1
175
     1
 42
1.0
 92
       10
 66
     7
 43
1.0
 76
     1
 77
     6
 78
     2
 67
     7
 79
     5
170
     0
171
     0
290
     0
174
     0
 93
        1
 44
0.0
173
     0
291
     1
 45
0.0
1001
ACAD
1000
AcDbSavedByObjectVersion
1070
     0
  0
VISUALSTYLE
  5
6130
102
{ACAD_XDICTIONARY
360
62E5
102
}
102
{ACAD_REACTORS
330
6122
102
}
330
6122
100
AcDbVisualStyle
  2
Linepattern
 70
    14
 71
     2
 72
     2
 73
     0
 90
        0
 40
-0.6
 41
-30.0
 62
     5
 63
     7
421
 16777215
 74
     1
 91
        4
 64
     7
 65
   257
 75
     7
175
     7
 42
1.0
 92
        8
 66
     7
 43
1.0
 76
     1
 77
     6
 78
     2
 67
     7
 79
     5
170
     0
171
     0
290
     0
174
     0
 93
        1
 44
0.0
173
     0
291
     1
 45
0.0
1001
ACAD
1000
AcDbSavedByObjectVersion
1070
     0
  0
VISUALSTYLE
  5
6139
102
{ACAD_XDICTIONARY
360
62F7
102
}
102
{ACAD_REACTORS
330
6122
102
}
330
6122
100
AcDbVisualStyle
  2
OverhangOff
 70
    21
 71
     2
 72
     2
 73
     0
 90
        0
 40
-0.6
 41
-30.0
 62
     5
 63
     7
421
 16777215
 74
     1
 91
        4
 64
     7
 65
   257
 75
     1
175
     1
 42
1.0
 92
        9
 66
     7
 43
1.0
 76
     1
 77
     6
 78
     2
 67
     7
 79
     5
170
     0
171
     0
290
     0
174
     0
 93
        1
 44
0.0
173
     0
291
     1
 45
0.0
1001
ACAD
1000
AcDbSavedByObjectVersion
1070
     0
  0
VISUALSTYLE
  5
612C
102
{ACAD_XDICTIONARY
360
62DD
102
}
102
{ACAD_REACTORS
330
6122
102
}
330
6122
100
AcDbVisualStyle
  2
Realistic
 70
     8
 71
     2
 72
     3
 73
     0
 90
        2
 40
-0.6
 41
30.0
 62
     5
 63
     7
421
 16777215
 74
     0
 91
        0
 64
     7
 65
   257
 75
     1
175
     1
 42
1.0
 92
        8
 66
   257
 43
1.0
 76
     1
 77
     6
 78
     2
 67
     7
 79
     3
170
     0
171
     0
290
     0
174
     0
 93
       13
 44
0.0
173
     0
291
     0
 45
0.0
1001
ACAD
1000
AcDbSavedByObjectVersion
1070
     0
  0
VISUALSTYLE
  5
6137
102
{ACAD_XDICTIONARY
360
62F3
102
}
102
{ACAD_REACTORS
330
6122
102
}
330
6122
100
AcDbVisualStyle
  2
Shaded
 70
    27
 71
     2
 72
     2
 73
     1
 90
        2
 40
-0.6
 41
30.0
 62
     5
 63
     7
421
 16777215
 74
     0
 91
        4
 64
     7
 65
   257
 75
     1
175
     1
 42
1.0
 92
        8
 66
   257
 43
1.0
 76
     1
 77
     6
 78
     2
 67
     8
425
  7895160
 79
     3
170
     0
171
     0
290
     0
174
     0
 93
        5
 44
0.0
173
     0
291
     0
 45
0.0
1001
ACAD
1000
AcDbSavedByObjectVersion
1070
     0
  0
VISUALSTYLE
  5
6136
102
{ACAD_XDICTIONARY
360
62F1
102
}
102
{ACAD_REACTORS
330
6122
102
}
330
6122
100
AcDbVisualStyle
  2
Shaded with edges
 70
    26
 71
     2
 72
     2
 73
     1
 90
        2
 40
-0.6
 41
30.0
 62
     5
 63
     7
421
 16777215
 74
     1
 91
        2
 64
     7
 65
   257
 75
     2
175
     1
 42
1.0
 92
        8
 66
   257
 43
1.0
 76
     1
 77
     6
 78
     2
 67
     7
 79
     3
170
     0
171
     0
290
     0
174
     0
 93
        5
 44
0.0
173
     0
291
     0
 45
0.0
1001
ACAD
1000
AcDbSavedByObjectVersion
1070
     0
  0
VISUALSTYLE
  5
6133
102
{ACAD_XDICTIONARY
360
62EB
102
}
102
{ACAD_REACTORS
330
6122
102
}
330
6122
100
AcDbVisualStyle
  2
Shades of Gray
 70
    23
 71
     2
 72
     2
 73
     3
 90
        0
 40
-0.6
 41
-30.0
 62
     5
 63
     7
421
 16777215
 74
     2
 91
        2
 64
     7
 65
     7
 75
     1
175
     1
 42
40.0
 92
        8
 66
     7
 43
1.0
 76
     1
 77
     6
 78
     2
 67
     7
 79
     3
170
     0
171
     0
290
     0
174
     0
 93
        1
 44
0.0
173
     0
291
     0
 45
0.0
1001
ACAD
1000
AcDbSavedByObjectVersion
1070
     0
  0
VISUALSTYLE
  5
6134
102
{ACAD_XDICTIONARY
360
62ED
102
}
102
{ACAD_REACTORS
330
6122
102
}
330
6122
100
AcDbVisualStyle
  2
Sketchy
 70
    24
 71
     1
 72
     2
 73
     2
 90
        0
 40
-0.6
 41
-30.0
 62
     5
 63
     7
421
 16777215
 74
     2
 91
        2
 64
     7
 65
     7
 75
     1
175
     1
 42
40.0
 92
       11
 66
     7
 43
1.0
 76
     1
 77
     6
 78
     2
 67
     7
 79
     6
170
     0
171
     0
290
     0
174
     0
 93
        1
 44
0.0
173
     0
291
     0
 45
0.0
1001
ACAD
1000
AcDbSavedByObjectVersion
1070
     0
  0
VISUALSTYLE
  5
612F
102
{ACAD_XDICTIONARY
360
62E3
102
}
102
{ACAD_REACTORS
330
6122
102
}
330
6122
100
AcDbVisualStyle
  2
Thicken
 70
    13
 71
     2
 72
     2
 73
     0
 90
        0
 40
-0.6
 41
-30.0
 62
     5
 63
     7
421
 16777215
 74
     1
 91
        4
 64
     7
 65
   257
 75
     1
175
     1
 42
1.0
 92
       12
 66
     7
 43
1.0
 76
     1
 77
     6
 78
     2
 67
     7
 79
     5
170
     0
171
     0
290
     0
174
     0
 93
        1
 44
0.0
173
     0
291
     1
 45
0.0
1001
ACAD
1000
AcDbSavedByObjectVersion
1070
     0
  0
VISUALSTYLE
  5
6129
102
{ACAD_XDICTIONARY
360
62D7
102
}
102
{ACAD_REACTORS
330
6122
102
}
330
6122
100
AcDbVisualStyle
  2
Wireframe
 70
     5
 71
     0
 72
     2
 73
     0
 90
        0
 40
-0.6
 41
-30.0
 62
     5
 63
     7
421
 16777215
 74
     1
 91
        4
 64
     7
 65
   257
 75
     1
175
     1
 42
1.0
 92
        0
 66
   257
 43
1.0
 76
     1
 77
     6
 78
     2
 67
     7
 79
     3
170
     0
171
     0
290
     0
174
     0
 93
        1
 44
0.0
173
     0
291
     0
 45
0.0
1001
ACAD
1000
AcDbSavedByObjectVersion
1070
     0
  0
VISUALSTYLE
  5
6135
102
{ACAD_XDICTIONARY
360
62EF
102
}
102
{ACAD_REACTORS
330
6122
102
}
330
6122
100
AcDbVisualStyle
  2
X-Ray
 70
    25
 71
     2
 72
     2
 73
     1
 90
        1
 40
0.5
 41
-30.0
 62
     5
 63
     7
421
 16777215
 74
     1
 91
        0
 64
     7
 65
   257
 75
     1
175
     1
 42
1.0
 92
        8
 66
     7
 43
1.0
 76
     1
 77
     6
 78
     2
 67
     7
 79
     3
170
     0
171
     0
290
     0
174
     0
 93
       13
 44
0.0
173
     0
291
     0
 45
0.0
1001
ACAD
1000
AcDbSavedByObjectVersion
1070
     0
  0
DICTIONARYVAR
  5
62C3
102
{ACAD_REACTORS
330
62BD
102
}
330
62BD
100
DictionaryVariables
280
     0
  1
1:1
  0
DICTIONARYVAR
  5
62BF
102
{ACAD_REACTORS
330
62BD
102
}
330
62BD
100
DictionaryVariables
280
     0
  1
STANDARD
  0
DICTIONARYVAR
  5
62BE
102
{ACAD_REACTORS
330
62BD
102
}
330
62BD
100
DictionaryVariables
280
     0
  1
STANDARD
  0
DICTIONARYVAR
  5
62C0
102
{ACAD_REACTORS
330
62BD
102
}
330
62BD
100
DictionaryVariables
280
     0
  1
Imperial24
  0
DICTIONARYVAR
  5
62C1
102
{ACAD_REACTORS
330
62BD
102
}
330
62BD
100
DictionaryVariables
280
     0
  1
Imperial24
  0
DICTIONARYVAR
  5
62C5
102
{ACAD_REACTORS
330
62BD
102
}
330
62BD
100
DictionaryVariables
280
     0
  1
1
  0
DICTIONARYVAR
  5
62C6
102
{ACAD_REACTORS
330
62BD
102
}
330
62BD
100
DictionaryVariables
280
     0
  1
15
  0
DICTIONARYVAR
  5
62C4
102
{ACAD_REACTORS
330
62BD
102
}
330
62BD
100
DictionaryVariables
280
     0
  1
0
  0
DICTIONARYVAR
  5
62C2
102
{ACAD_REACTORS
330
62BD
102
}
330
62BD
100
DictionaryVariables
280
     0
  1
0
  0
DICTIONARYVAR
  5
62C7
102
{ACAD_REACTORS
330
62BD
102
}
330
62BD
100
DictionaryVariables
280
     0
  1
2
  0
DICTIONARY
  5
61EE
102
{ACAD_REACTORS
330
61E7
102
}
330
61E7
100
AcDbDictionary
281
     1
  0
DICTIONARY
  5
62FD
330
6163
100
AcDbDictionary
280
     1
281
     1
  3
ACAD_XREC_ROUNDTRIP
360
62FE
  0
DICTIONARY
  5
6113
330
6112
100
AcDbDictionary
280
     1
281
     1
  3
BUMPTILE
360
6115
  3
DIFFUSETILE
360
6114
  3
OPACITYTILE
360
6118
  3
REFLECTIONTILE
360
6117
  3
REFRACTIONTILE
360
6119
  3
SPECULARTILE
360
6116
  0
DICTIONARY
  5
610B
330
610A
100
AcDbDictionary
280
     1
281
     1
  3
BUMPTILE
360
610D
  3
DIFFUSETILE
360
610C
  3
OPACITYTILE
360
6110
  3
REFLECTIONTILE
360
610F
  3
REFRACTIONTILE
360
6111
  3
SPECULARTILE
360
610E
  0
DICTIONARY
  5
611B
330
611A
100
AcDbDictionary
280
     1
281
     1
  3
BUMPTILE
360
611D
  3
DIFFUSETILE
360
611C
  3
OPACITYTILE
360
6120
  3
REFLECTIONTILE
360
611F
  3
REFRACTIONTILE
360
6121
  3
SPECULARTILE
360
611E
  0
DICTIONARY
  5
62FB
330
6161
100
AcDbDictionary
280
     1
281
     1
  3
ACAD_XREC_ROUNDTRIP
360
62FC
  0
DICTIONARY
  5
62C8
330
615D
100
AcDbDictionary
280
     1
281
     1
  3
ACAD_ROUNDTRIP_2008_TABLESTYLE_CELLSTYLEMAP
360
62C9
  0
DICTIONARY
  5
62D5
330
6128
100
AcDbDictionary
280
     1
281
     1
  3
ACAD_XREC_ROUNDTRIP
360
62D6
  0
DICTIONARY
  5
62D3
330
6127
100
AcDbDictionary
280
     1
281
     1
  3
ACAD_XREC_ROUNDTRIP
360
62D4
  0
DICTIONARY
  5
62E1
330
612E
100
AcDbDictionary
280
     1
281
     1
  3
ACAD_XREC_ROUNDTRIP
360
62E2
  0
DICTIONARY
  5
62E9
330
6132
100
AcDbDictionary
280
     1
281
     1
  3
ACAD_XREC_ROUNDTRIP
360
62EA
  0
DICTIONARY
  5
62DB
330
612B
100
AcDbDictionary
280
     1
281
     1
  3
ACAD_XREC_ROUNDTRIP
360
62DC
  0
DICTIONARY
  5
62DF
330
612D
100
AcDbDictionary
280
     1
281
     1
  3
ACAD_XREC_ROUNDTRIP
360
62E0
  0
DICTIONARY
  5
62F9
330
613A
100
AcDbDictionary
280
     1
281
     1
  3
ACAD_XREC_ROUNDTRIP
360
62FA
  0
DICTIONARY
  5
62E7
330
6131
100
AcDbDictionary
280
     1
281
     1
  3
ACAD_XREC_ROUNDTRIP
360
62E8
  0
DICTIONARY
  5
62CB
330
6123
100
AcDbDictionary
280
     1
281
     1
  3
ACAD_XREC_ROUNDTRIP
360
62CC
  0
DICTIONARY
  5
62CD
330
6124
100
AcDbDictionary
280
     1
281
     1
  3
ACAD_XREC_ROUNDTRIP
360
62CE
  0
DICTIONARY
  5
62CF
330
6125
100
AcDbDictionary
280
     1
281
     1
  3
ACAD_XREC_ROUNDTRIP
360
62D0
  0
DICTIONARY
  5
62D1
330
6126
100
AcDbDictionary
280
     1
281
     1
  3
ACAD_XREC_ROUNDTRIP
360
62D2
  0
DICTIONARY
  5
62D9
330
612A
100
AcDbDictionary
280
     1
281
     1
  3
ACAD_XREC_ROUNDTRIP
360
62DA
  0
DICTIONARY
  5
62F5
330
6138
100
AcDbDictionary
280
     1
281
     1
  3
ACAD_XREC_ROUNDTRIP
360
62F6
  0
DICTIONARY
  5
62E5
330
6130
100
AcDbDictionary
280
     1
281
     1
  3
ACAD_XREC_ROUNDTRIP
360
62E6
  0
DICTIONARY
  5
62F7
330
6139
100
AcDbDictionary
280
     1
281
     1
  3
ACAD_XREC_ROUNDTRIP
360
62F8
  0
DICTIONARY
  5
62DD
330
612C
100
AcDbDictionary
280
     1
281
     1
  3
ACAD_XREC_ROUNDTRIP
360
62DE
  0
DICTIONARY
  5
62F3
330
6137
100
AcDbDictionary
280
     1
281
     1
  3
ACAD_XREC_ROUNDTRIP
360
62F4
  0
DICTIONARY
  5
62F1
330
6136
100
AcDbDictionary
280
     1
281
     1
  3
ACAD_XREC_ROUNDTRIP
360
62F2
  0
DICTIONARY
  5
62EB
330
6133
100
AcDbDictionary
280
     1
281
     1
  3
ACAD_XREC_ROUNDTRIP
360
62EC
  0
DICTIONARY
  5
62ED
330
6134
100
AcDbDictionary
280
     1
281
     1
  3
ACAD_XREC_ROUNDTRIP
360
62EE
  0
DICTIONARY
  5
62E3
330
612F
100
AcDbDictionary
280
     1
281
     1
  3
ACAD_XREC_ROUNDTRIP
360
62E4
  0
DICTIONARY
  5
62D7
330
6129
100
AcDbDictionary
280
     1
281
     1
  3
ACAD_XREC_ROUNDTRIP
360
62D8
  0
DICTIONARY
  5
62EF
330
6135
100
AcDbDictionary
280
     1
281
     1
  3
ACAD_XREC_ROUNDTRIP
360
62F0
  0
XRECORD
  5
62FE
102
{ACAD_REACTORS
330
62FD
102
}
330
62FD
100
AcDbXrecord
280
     1
102
DISPLAYNAME
  1
Imperial24
102
FLAGS
 90
        0
  0
XRECORD
  5
6115
102
{ACAD_REACTORS
330
6113
102
}
330
6113
100
AcDbXrecord
280
     1
270
     1
271
     1
  0
XRECORD
  5
6114
102
{ACAD_REACTORS
330
6113
102
}
330
6113
100
AcDbXrecord
280
     1
270
     1
271
     1
  0
XRECORD
  5
6118
102
{ACAD_REACTORS
330
6113
102
}
330
6113
100
AcDbXrecord
280
     1
270
     1
271
     1
  0
XRECORD
  5
6117
102
{ACAD_REACTORS
330
6113
102
}
330
6113
100
AcDbXrecord
280
     1
270
     1
271
     1
  0
XRECORD
  5
6119
102
{ACAD_REACTORS
330
6113
102
}
330
6113
100
AcDbXrecord
280
     1
270
     1
271
     1
  0
XRECORD
  5
6116
102
{ACAD_REACTORS
330
6113
102
}
330
6113
100
AcDbXrecord
280
     1
270
     1
271
     1
  0
XRECORD
  5
610D
102
{ACAD_REACTORS
330
610B
102
}
330
610B
100
AcDbXrecord
280
     1
270
     1
271
     1
  0
XRECORD
  5
610C
102
{ACAD_REACTORS
330
610B
102
}
330
610B
100
AcDbXrecord
280
     1
270
     1
271
     1
  0
XRECORD
  5
6110
102
{ACAD_REACTORS
330
610B
102
}
330
610B
100
AcDbXrecord
280
     1
270
     1
271
     1
  0
XRECORD
  5
610F
102
{ACAD_REACTORS
330
610B
102
}
330
610B
100
AcDbXrecord
280
     1
270
     1
271
     1
  0
XRECORD
  5
6111
102
{ACAD_REACTORS
330
610B
102
}
330
610B
100
AcDbXrecord
280
     1
270
     1
271
     1
  0
XRECORD
  5
610E
102
{ACAD_REACTORS
330
610B
102
}
330
610B
100
AcDbXrecord
280
     1
270
     1
271
     1
  0
XRECORD
  5
611D
102
{ACAD_REACTORS
330
611B
102
}
330
611B
100
AcDbXrecord
280
     1
270
     1
271
     1
  0
XRECORD
  5
611C
102
{ACAD_REACTORS
330
611B
102
}
330
611B
100
AcDbXrecord
280
     1
270
     1
271
     1
  0
XRECORD
  5
6120
102
{ACAD_REACTORS
330
611B
102
}
330
611B
100
AcDbXrecord
280
     1
270
     1
271
     1
  0
XRECORD
  5
611F
102
{ACAD_REACTORS
330
611B
102
}
330
611B
100
AcDbXrecord
280
     1
270
     1
271
     1
  0
XRECORD
  5
6121
102
{ACAD_REACTORS
330
611B
102
}
330
611B
100
AcDbXrecord
280
     1
270
     1
271
     1
  0
XRECORD
  5
611E
102
{ACAD_REACTORS
330
611B
102
}
330
611B
100
AcDbXrecord
280
     1
270
     1
271
     1
  0
XRECORD
  5
62FC
102
{ACAD_REACTORS
330
62FB
102
}
330
62FB
100
AcDbXrecord
280
     1
102
DISPLAYNAME
  1
Imperial24
102
FLAGS
 90
        0
  0
CELLSTYLEMAP
  5
62C9
102
{ACAD_REACTORS
330
62C8
102
}
330
62C8
100
AcDbCellStyleMap
 90
        3
300
CELLSTYLE
  1
TABLEFORMAT_BEGIN
 90
        5
170
     1
 91
        0
 92
    32768
 62
   257
 93
        1
300
CONTENTFORMAT
  1
CONTENTFORMAT_BEGIN
 90
        0
 91
        0
 92
      512
 93
        0
300

 40
0.0
140
1.0
 94
        5
 62
     0
340
614E
144
0.25
309
CONTENTFORMAT_END
171
     0
 94
        0
309
TABLEFORMAT_END
  1
CELLSTYLE_BEGIN
 90
        1
 91
        1
300
_TITLE
309
CELLSTYLE_END
300
CELLSTYLE
  1
TABLEFORMAT_BEGIN
 90
        5
170
     1
 91
        0
 92
        0
 62
   257
 93
        1
300
CONTENTFORMAT
  1
CONTENTFORMAT_BEGIN
 90
        0
 91
        0
 92
      512
 93
        0
300

 40
0.0
140
1.0
 94
        5
 62
     0
340
614E
144
0.18
309
CONTENTFORMAT_END
171
     0
 94
        0
309
TABLEFORMAT_END
  1
CELLSTYLE_BEGIN
 90
        2
 91
        1
300
_HEADER
309
CELLSTYLE_END
300
CELLSTYLE
  1
TABLEFORMAT_BEGIN
 90
        5
170
     1
 91
        0
 92
        0
 62
   257
 93
        1
300
CONTENTFORMAT
  1
CONTENTFORMAT_BEGIN
 90
        0
 91
        0
 92
      512
 93
        0
300

 40
0.0
140
1.0
 94
        2
 62
     0
340
614E
144
0.18
309
CONTENTFORMAT_END
171
     0
 94
        0
309
TABLEFORMAT_END
  1
CELLSTYLE_BEGIN
 90
        3
 91
        2
300
_DATA
309
CELLSTYLE_END
  0
XRECORD
  5
62D6
102
{ACAD_REACTORS
330
62D5
102
}
330
62D5
100
AcDbXrecord
280
     1
102
RTVSPost2010Prop28
280
     1
102
RTVSPost2010PropOp28
 70
     1
102
RTVSPost2010Prop29
280
     1
102
RTVSPost2010PropOp29
 70
     1
102
RTVSPost2010Prop30
280
     0
102
RTVSPost2010PropOp30
 70
     1
102
RTVSPost2010Prop31
280
     0
102
RTVSPost2010PropOp31
 70
     1
102
RTVSPost2010Prop32
280
     0
102
RTVSPost2010PropOp32
 70
     1
102
RTVSPost2010Prop33
280
     0
102
RTVSPost2010PropOp33
 70
     1
102
RTVSPost2010Prop34
280
     0
102
RTVSPost2010PropOp34
 70
     1
102
RTVSPost2010Prop35
280
     0
102
RTVSPost2010PropOp35
 70
     1
102
RTVSPost2010Prop36
280
     0
102
RTVSPost2010PropOp36
 70
     1
102
RTVSPost2010Prop37
 90
       50
102
RTVSPost2010PropOp37
 70
     1
102
RTVSPost2010Prop38
140
0.0
102
RTVSPost2010PropOp38
 70
     1
102
RTVSPost2010Prop39
140
1.0
102
RTVSPost2010PropOp39
 70
     1
102
RTVSPost2010Prop40
 90
        0
102
RTVSPost2010PropOp40
 70
     1
102
RTVSPost2010Prop41ColorIndex
 90
       18
102
RTVSPost2010Prop41ColorRGB
 90
        0
102
RTVSPost2010PropOp41
 70
     1
102
RTVSPost2010Prop42
 90
       50
102
RTVSPost2010PropOp42
 70
     1
102
RTVSPost2010Prop43
 90
        3
102
RTVSPost2010PropOp43
 70
     1
102
RTVSPost2010Prop44ColorIndex
 90
        5
102
RTVSPost2010Prop44ColorRGB
 90
      255
102
RTVSPost2010PropOp44
 70
     1
102
RTVSPost2010Prop45
280
     0
102
RTVSPost2010PropOp45
 70
     1
102
RTVSPost2010Prop46
 90
       50
102
RTVSPost2010PropOp46
 70
     1
102
RTVSPost2010Prop47
 90
       50
102
RTVSPost2010PropOp47
 70
     1
102
RTVSPost2010Prop48
 90
       50
102
RTVSPost2010PropOp48
 70
     1
102
RTVSPost2010Prop49
280
     0
102
RTVSPost2010PropOp49
 70
     1
102
RTVSPost2010Prop50
 90
       50
102
RTVSPost2010PropOp50
 70
     1
102
RTVSPost2010Prop51ColorIndex
 90
      256
102
RTVSPost2010Prop51ColorRGB
 90
-16777216
102
RTVSPost2010PropOp51
 70
     0
102
RTVSPost2010Prop52
140
1.0
102
RTVSPost2010PropOp52
 70
     0
102
RTVSPost2010Prop53
 90
        2
102
RTVSPost2010PropOp53
 70
     1
102
RTVSPost2010Prop54
  1
strokes_ogs.tif
102
RTVSPost2010PropOp54
 70
     1
102
RTVSPost2010Prop55
280
     0
102
RTVSPost2010PropOp55
 70
     1
102
RTVSPost2010Prop56
140
1.0
102
RTVSPost2010PropOp56
 70
     1
102
RTVSPost2010Prop57
140
1.0
102
RTVSPost2010PropOp57
 70
     1
102
RTVSPropertyOp0
 70
     1
102
RTVSPropertyOp1
 70
     1
102
RTVSPropertyOp2
 70
     1
102
RTVSPropertyOp3
 70
     1
102
RTVSPropertyOp4
 70
     1
102
RTVSPropertyOp5
 70
     1
102
RTVSPropertyOp6
 70
     1
102
RTVSPropertyOp7
 70
     1
102
RTVSPropertyOp8
 70
     1
102
RTVSPropertyOp9
 70
     1
102
RTVSPropertyOp10
 70
     1
102
RTVSPropertyOp11
 70
     1
102
RTVSPropertyOp12
 70
     1
102
RTVSPropertyOp13
 70
     1
102
RTVSPropertyOp14
 70
     1
102
RTVSPropertyOp15
 70
     1
102
RTVSPropertyOp16
 70
     1
102
RTVSPropertyOp17
 70
     1
102
RTVSPropertyOp18
 70
     1
102
RTVSPropertyOp19
 70
     1
102
RTVSPropertyOp20
 70
     1
102
RTVSPropertyOp21
 70
     1
102
RTVSPropertyOp22
 70
     1
102
RTVSPropertyOp23
 70
     1
102
RTVSPropertyOp24
 70
     1
102
RTVSPropertyOp25
 70
     1
102
RTVSPropertyOp26
 70
     1
102
RTVSPropertyOp27
 70
     1
102
RTVSPropertyOp28
 70
     1
102
RTVSPropertyOp29
 70
     1
102
RTVSPropertyOp30
 70
     1
102
RTVSPropertyOp31
 70
     1
102
RTVSPropertyOp32
 70
     1
102
RTVSPropertyOp33
 70
     1
102
RTVSPropertyOp34
 70
     1
102
RTVSPropertyOp35
 70
     1
102
RTVSPropertyOp36
 70
     1
102
RTVSPropertyOp37
 70
     1
102
RTVSPropertyOp38
 70
     1
102
RTVSPropertyOp39
 70
     1
102
RTVSPropertyOp40
 70
     1
102
RTVSPropertyOp41
 70
     1
102
RTVSPropertyOp42
 70
     1
102
RTVSPropertyOp43
 70
     1
102
RTVSPropertyOp44
 70
     1
102
RTVSPropertyOp45
 70
     1
102
RTVSPropertyOp46
 70
     1
102
RTVSPropertyOp47
 70
     1
102
RTVSPropertyOp48
 70
     1
102
RTVSPropertyOp49
 70
     1
102
RTVSPropertyOp50
 70
     1
102
RTVSPropertyOp51
 70
     0
102
RTVSPropertyOp52
 70
     0
102
RTVSPropertyOp53
 70
     1
102
RTVSPropertyOp54
 70
     1
102
RTVSPropertyOp55
 70
     1
102
RTVSPropertyOp56
 70
     1
102
RTVSPropertyOp57
 70
     1
102
RTVSPropertyOp58
 70
     1
102
RTVSPropertyOp59
 70
     1
102
RTVSPropertyOp60
 70
     1
102
RTVSPropertyOp61
 70
     1
102
RTVSPropertyOp62
 70
     1
  0
XRECORD
  5
62D4
102
{ACAD_REACTORS
330
62D3
102
}
330
62D3
100
AcDbXrecord
280
     1
102
RTVSPost2010Prop28
280
     0
102
RTVSPost2010PropOp28
 70
     1
102
RTVSPost2010Prop29
280
     1
102
RTVSPost2010PropOp29
 70
     1
102
RTVSPost2010Prop30
280
     1
102
RTVSPost2010PropOp30
 70
     1
102
RTVSPost2010Prop31
280
     0
102
RTVSPost2010PropOp31
 70
     1
102
RTVSPost2010Prop32
280
     0
102
RTVSPost2010PropOp32
 70
     1
102
RTVSPost2010Prop33
280
     0
102
RTVSPost2010PropOp33
 70
     1
102
RTVSPost2010Prop34
280
     0
102
RTVSPost2010PropOp34
 70
     1
102
RTVSPost2010Prop35
280
     0
102
RTVSPost2010PropOp35
 70
     1
102
RTVSPost2010Prop36
280
     0
102
RTVSPost2010PropOp36
 70
     1
102
RTVSPost2010Prop37
 90
       50
102
RTVSPost2010PropOp37
 70
     1
102
RTVSPost2010Prop38
140
0.0
102
RTVSPost2010PropOp38
 70
     1
102
RTVSPost2010Prop39
140
1.0
102
RTVSPost2010PropOp39
 70
     1
102
RTVSPost2010Prop40
 90
        0
102
RTVSPost2010PropOp40
 70
     1
102
RTVSPost2010Prop41ColorIndex
 90
       18
102
RTVSPost2010Prop41ColorRGB
 90
        0
102
RTVSPost2010PropOp41
 70
     1
102
RTVSPost2010Prop42
 90
       50
102
RTVSPost2010PropOp42
 70
     1
102
RTVSPost2010Prop43
 90
        3
102
RTVSPost2010PropOp43
 70
     1
102
RTVSPost2010Prop44ColorIndex
 90
        5
102
RTVSPost2010Prop44ColorRGB
 90
      255
102
RTVSPost2010PropOp44
 70
     1
102
RTVSPost2010Prop45
280
     0
102
RTVSPost2010PropOp45
 70
     1
102
RTVSPost2010Prop46
 90
       50
102
RTVSPost2010PropOp46
 70
     1
102
RTVSPost2010Prop47
 90
       50
102
RTVSPost2010PropOp47
 70
     1
102
RTVSPost2010Prop48
 90
       50
102
RTVSPost2010PropOp48
 70
     1
102
RTVSPost2010Prop49
280
     0
102
RTVSPost2010PropOp49
 70
     1
102
RTVSPost2010Prop50
 90
       50
102
RTVSPost2010PropOp50
 70
     1
102
RTVSPost2010Prop51ColorIndex
 90
      256
102
RTVSPost2010Prop51ColorRGB
 90
-16777216
102
RTVSPost2010PropOp51
 70
     0
102
RTVSPost2010Prop52
140
1.0
102
RTVSPost2010PropOp52
 70
     0
102
RTVSPost2010Prop53
 90
        2
102
RTVSPost2010PropOp53
 70
     1
102
RTVSPost2010Prop54
  1
strokes_ogs.tif
102
RTVSPost2010PropOp54
 70
     1
102
RTVSPost2010Prop55
280
     0
102
RTVSPost2010PropOp55
 70
     1
102
RTVSPost2010Prop56
140
1.0
102
RTVSPost2010PropOp56
 70
     1
102
RTVSPost2010Prop57
140
1.0
102
RTVSPost2010PropOp57
 70
     1
102
RTVSPropertyOp0
 70
     1
102
RTVSPropertyOp1
 70
     1
102
RTVSPropertyOp2
 70
     1
102
RTVSPropertyOp3
 70
     1
102
RTVSPropertyOp4
 70
     1
102
RTVSPropertyOp5
 70
     1
102
RTVSPropertyOp6
 70
     1
102
RTVSPropertyOp7
 70
     1
102
RTVSPropertyOp8
 70
     1
102
RTVSPropertyOp9
 70
     1
102
RTVSPropertyOp10
 70
     1
102
RTVSPropertyOp11
 70
     1
102
RTVSPropertyOp12
 70
     1
102
RTVSPropertyOp13
 70
     1
102
RTVSPropertyOp14
 70
     1
102
RTVSPropertyOp15
 70
     1
102
RTVSPropertyOp16
 70
     1
102
RTVSPropertyOp17
 70
     1
102
RTVSPropertyOp18
 70
     1
102
RTVSPropertyOp19
 70
     1
102
RTVSPropertyOp20
 70
     1
102
RTVSPropertyOp21
 70
     1
102
RTVSPropertyOp22
 70
     1
102
RTVSPropertyOp23
 70
     1
102
RTVSPropertyOp24
 70
     1
102
RTVSPropertyOp25
 70
     1
102
RTVSPropertyOp26
 70
     1
102
RTVSPropertyOp27
 70
     1
102
RTVSPropertyOp28
 70
     1
102
RTVSPropertyOp29
 70
     1
102
RTVSPropertyOp30
 70
     1
102
RTVSPropertyOp31
 70
     1
102
RTVSPropertyOp32
 70
     1
102
RTVSPropertyOp33
 70
     1
102
RTVSPropertyOp34
 70
     1
102
RTVSPropertyOp35
 70
     1
102
RTVSPropertyOp36
 70
     1
102
RTVSPropertyOp37
 70
     1
102
RTVSPropertyOp38
 70
     1
102
RTVSPropertyOp39
 70
     1
102
RTVSPropertyOp40
 70
     1
102
RTVSPropertyOp41
 70
     1
102
RTVSPropertyOp42
 70
     1
102
RTVSPropertyOp43
 70
     1
102
RTVSPropertyOp44
 70
     1
102
RTVSPropertyOp45
 70
     1
102
RTVSPropertyOp46
 70
     1
102
RTVSPropertyOp47
 70
     1
102
RTVSPropertyOp48
 70
     1
102
RTVSPropertyOp49
 70
     1
102
RTVSPropertyOp50
 70
     1
102
RTVSPropertyOp51
 70
     0
102
RTVSPropertyOp52
 70
     0
102
RTVSPropertyOp53
 70
     1
102
RTVSPropertyOp54
 70
     1
102
RTVSPropertyOp55
 70
     1
102
RTVSPropertyOp56
 70
     1
102
RTVSPropertyOp57
 70
     1
102
RTVSPropertyOp58
 70
     1
102
RTVSPropertyOp59
 70
     1
102
RTVSPropertyOp60
 70
     1
102
RTVSPropertyOp61
 70
     1
102
RTVSPropertyOp62
 70
     1
  0
XRECORD
  5
62E2
102
{ACAD_REACTORS
330
62E1
102
}
330
62E1
100
AcDbXrecord
280
     1
102
RTVSPost2010Prop28
280
     0
102
RTVSPost2010PropOp28
 70
     1
102
RTVSPost2010Prop29
280
     1
102
RTVSPost2010PropOp29
 70
     1
102
RTVSPost2010Prop30
280
     1
102
RTVSPost2010PropOp30
 70
     1
102
RTVSPost2010Prop31
280
     0
102
RTVSPost2010PropOp31
 70
     1
102
RTVSPost2010Prop32
280
     0
102
RTVSPost2010PropOp32
 70
     1
102
RTVSPost2010Prop33
280
     0
102
RTVSPost2010PropOp33
 70
     1
102
RTVSPost2010Prop34
280
     0
102
RTVSPost2010PropOp34
 70
     1
102
RTVSPost2010Prop35
280
     0
102
RTVSPost2010PropOp35
 70
     1
102
RTVSPost2010Prop36
280
     0
102
RTVSPost2010PropOp36
 70
     1
102
RTVSPost2010Prop37
 90
       50
102
RTVSPost2010PropOp37
 70
     1
102
RTVSPost2010Prop38
140
0.0
102
RTVSPost2010PropOp38
 70
     1
102
RTVSPost2010Prop39
140
1.0
102
RTVSPost2010PropOp39
 70
     1
102
RTVSPost2010Prop40
 90
        0
102
RTVSPost2010PropOp40
 70
     1
102
RTVSPost2010Prop41ColorIndex
 90
       18
102
RTVSPost2010Prop41ColorRGB
 90
        0
102
RTVSPost2010PropOp41
 70
     1
102
RTVSPost2010Prop42
 90
       50
102
RTVSPost2010PropOp42
 70
     1
102
RTVSPost2010Prop43
 90
        3
102
RTVSPost2010PropOp43
 70
     1
102
RTVSPost2010Prop44ColorIndex
 90
        5
102
RTVSPost2010Prop44ColorRGB
 90
      255
102
RTVSPost2010PropOp44
 70
     1
102
RTVSPost2010Prop45
280
     0
102
RTVSPost2010PropOp45
 70
     1
102
RTVSPost2010Prop46
 90
       50
102
RTVSPost2010PropOp46
 70
     1
102
RTVSPost2010Prop47
 90
       50
102
RTVSPost2010PropOp47
 70
     1
102
RTVSPost2010Prop48
 90
       50
102
RTVSPost2010PropOp48
 70
     1
102
RTVSPost2010Prop49
280
     0
102
RTVSPost2010PropOp49
 70
     1
102
RTVSPost2010Prop50
 90
       50
102
RTVSPost2010PropOp50
 70
     1
102
RTVSPost2010Prop51ColorIndex
 90
      256
102
RTVSPost2010Prop51ColorRGB
 90
-16777216
102
RTVSPost2010PropOp51
 70
     0
102
RTVSPost2010Prop52
140
1.0
102
RTVSPost2010PropOp52
 70
     0
102
RTVSPost2010Prop53
 90
        2
102
RTVSPost2010PropOp53
 70
     1
102
RTVSPost2010Prop54
  1
strokes_ogs.tif
102
RTVSPost2010PropOp54
 70
     1
102
RTVSPost2010Prop55
280
     0
102
RTVSPost2010PropOp55
 70
     1
102
RTVSPost2010Prop56
140
1.0
102
RTVSPost2010PropOp56
 70
     1
102
RTVSPost2010Prop57
140
1.0
102
RTVSPost2010PropOp57
 70
     1
102
RTVSPropertyOp0
 70
     1
102
RTVSPropertyOp1
 70
     1
102
RTVSPropertyOp2
 70
     1
102
RTVSPropertyOp3
 70
     1
102
RTVSPropertyOp4
 70
     1
102
RTVSPropertyOp5
 70
     1
102
RTVSPropertyOp6
 70
     1
102
RTVSPropertyOp7
 70
     1
102
RTVSPropertyOp8
 70
     1
102
RTVSPropertyOp9
 70
     1
102
RTVSPropertyOp10
 70
     1
102
RTVSPropertyOp11
 70
     1
102
RTVSPropertyOp12
 70
     1
102
RTVSPropertyOp13
 70
     1
102
RTVSPropertyOp14
 70
     1
102
RTVSPropertyOp15
 70
     1
102
RTVSPropertyOp16
 70
     1
102
RTVSPropertyOp17
 70
     1
102
RTVSPropertyOp18
 70
     1
102
RTVSPropertyOp19
 70
     1
102
RTVSPropertyOp20
 70
     1
102
RTVSPropertyOp21
 70
     1
102
RTVSPropertyOp22
 70
     1
102
RTVSPropertyOp23
 70
     1
102
RTVSPropertyOp24
 70
     1
102
RTVSPropertyOp25
 70
     1
102
RTVSPropertyOp26
 70
     1
102
RTVSPropertyOp27
 70
     1
102
RTVSPropertyOp28
 70
     1
102
RTVSPropertyOp29
 70
     1
102
RTVSPropertyOp30
 70
     1
102
RTVSPropertyOp31
 70
     1
102
RTVSPropertyOp32
 70
     1
102
RTVSPropertyOp33
 70
     1
102
RTVSPropertyOp34
 70
     1
102
RTVSPropertyOp35
 70
     1
102
RTVSPropertyOp36
 70
     1
102
RTVSPropertyOp37
 70
     1
102
RTVSPropertyOp38
 70
     1
102
RTVSPropertyOp39
 70
     1
102
RTVSPropertyOp40
 70
     1
102
RTVSPropertyOp41
 70
     1
102
RTVSPropertyOp42
 70
     1
102
RTVSPropertyOp43
 70
     1
102
RTVSPropertyOp44
 70
     1
102
RTVSPropertyOp45
 70
     1
102
RTVSPropertyOp46
 70
     1
102
RTVSPropertyOp47
 70
     1
102
RTVSPropertyOp48
 70
     1
102
RTVSPropertyOp49
 70
     1
102
RTVSPropertyOp50
 70
     1
102
RTVSPropertyOp51
 70
     0
102
RTVSPropertyOp52
 70
     0
102
RTVSPropertyOp53
 70
     1
102
RTVSPropertyOp54
 70
     1
102
RTVSPropertyOp55
 70
     1
102
RTVSPropertyOp56
 70
     1
102
RTVSPropertyOp57
 70
     1
102
RTVSPropertyOp58
 70
     1
102
RTVSPropertyOp59
 70
     1
102
RTVSPropertyOp60
 70
     1
102
RTVSPropertyOp61
 70
     1
102
RTVSPropertyOp62
 70
     1
  0
XRECORD
  5
62EA
102
{ACAD_REACTORS
330
62E9
102
}
330
62E9
100
AcDbXrecord
280
     1
102
RTVSPost2010Prop28
280
     0
102
RTVSPost2010PropOp28
 70
     1
102
RTVSPost2010Prop29
280
     1
102
RTVSPost2010PropOp29
 70
     1
102
RTVSPost2010Prop30
280
     1
102
RTVSPost2010PropOp30
 70
     1
102
RTVSPost2010Prop31
280
     0
102
RTVSPost2010PropOp31
 70
     1
102
RTVSPost2010Prop32
280
     0
102
RTVSPost2010PropOp32
 70
     1
102
RTVSPost2010Prop33
280
     0
102
RTVSPost2010PropOp33
 70
     1
102
RTVSPost2010Prop34
280
     0
102
RTVSPost2010PropOp34
 70
     1
102
RTVSPost2010Prop35
280
     0
102
RTVSPost2010PropOp35
 70
     1
102
RTVSPost2010Prop36
280
     0
102
RTVSPost2010PropOp36
 70
     1
102
RTVSPost2010Prop37
 90
       50
102
RTVSPost2010PropOp37
 70
     1
102
RTVSPost2010Prop38
140
0.0
102
RTVSPost2010PropOp38
 70
     1
102
RTVSPost2010Prop39
140
1.0
102
RTVSPost2010PropOp39
 70
     1
102
RTVSPost2010Prop40
 90
        0
102
RTVSPost2010PropOp40
 70
     1
102
RTVSPost2010Prop41ColorIndex
 90
       18
102
RTVSPost2010Prop41ColorRGB
 90
        0
102
RTVSPost2010PropOp41
 70
     1
102
RTVSPost2010Prop42
 90
       50
102
RTVSPost2010PropOp42
 70
     1
102
RTVSPost2010Prop43
 90
        3
102
RTVSPost2010PropOp43
 70
     1
102
RTVSPost2010Prop44ColorIndex
 90
        5
102
RTVSPost2010Prop44ColorRGB
 90
      255
102
RTVSPost2010PropOp44
 70
     1
102
RTVSPost2010Prop45
280
     0
102
RTVSPost2010PropOp45
 70
     1
102
RTVSPost2010Prop46
 90
       50
102
RTVSPost2010PropOp46
 70
     1
102
RTVSPost2010Prop47
 90
       50
102
RTVSPost2010PropOp47
 70
     1
102
RTVSPost2010Prop48
 90
       50
102
RTVSPost2010PropOp48
 70
     1
102
RTVSPost2010Prop49
280
     0
102
RTVSPost2010PropOp49
 70
     1
102
RTVSPost2010Prop50
 90
       50
102
RTVSPost2010PropOp50
 70
     1
102
RTVSPost2010Prop51ColorIndex
 90
      256
102
RTVSPost2010Prop51ColorRGB
 90
-16777216
102
RTVSPost2010PropOp51
 70
     0
102
RTVSPost2010Prop52
140
1.0
102
RTVSPost2010PropOp52
 70
     0
102
RTVSPost2010Prop53
 90
        2
102
RTVSPost2010PropOp53
 70
     1
102
RTVSPost2010Prop54
  1
strokes_ogs.tif
102
RTVSPost2010PropOp54
 70
     1
102
RTVSPost2010Prop55
280
     0
102
RTVSPost2010PropOp55
 70
     1
102
RTVSPost2010Prop56
140
1.0
102
RTVSPost2010PropOp56
 70
     1
102
RTVSPost2010Prop57
140
1.0
102
RTVSPost2010PropOp57
 70
     1
102
RTVSPropertyOp0
 70
     1
102
RTVSPropertyOp1
 70
     1
102
RTVSPropertyOp2
 70
     1
102
RTVSPropertyOp3
 70
     1
102
RTVSPropertyOp4
 70
     1
102
RTVSPropertyOp5
 70
     1
102
RTVSPropertyOp6
 70
     1
102
RTVSPropertyOp7
 70
     1
102
RTVSPropertyOp8
 70
     1
102
RTVSPropertyOp9
 70
     1
102
RTVSPropertyOp10
 70
     1
102
RTVSPropertyOp11
 70
     1
102
RTVSPropertyOp12
 70
     1
102
RTVSPropertyOp13
 70
     1
102
RTVSPropertyOp14
 70
     1
102
RTVSPropertyOp15
 70
     1
102
RTVSPropertyOp16
 70
     1
102
RTVSPropertyOp17
 70
     1
102
RTVSPropertyOp18
 70
     1
102
RTVSPropertyOp19
 70
     1
102
RTVSPropertyOp20
 70
     1
102
RTVSPropertyOp21
 70
     1
102
RTVSPropertyOp22
 70
     1
102
RTVSPropertyOp23
 70
     1
102
RTVSPropertyOp24
 70
     1
102
RTVSPropertyOp25
 70
     1
102
RTVSPropertyOp26
 70
     1
102
RTVSPropertyOp27
 70
     1
102
RTVSPropertyOp28
 70
     1
102
RTVSPropertyOp29
 70
     1
102
RTVSPropertyOp30
 70
     1
102
RTVSPropertyOp31
 70
     1
102
RTVSPropertyOp32
 70
     1
102
RTVSPropertyOp33
 70
     1
102
RTVSPropertyOp34
 70
     1
102
RTVSPropertyOp35
 70
     1
102
RTVSPropertyOp36
 70
     1
102
RTVSPropertyOp37
 70
     1
102
RTVSPropertyOp38
 70
     1
102
RTVSPropertyOp39
 70
     1
102
RTVSPropertyOp40
 70
     1
102
RTVSPropertyOp41
 70
     1
102
RTVSPropertyOp42
 70
     1
102
RTVSPropertyOp43
 70
     1
102
RTVSPropertyOp44
 70
     1
102
RTVSPropertyOp45
 70
     1
102
RTVSPropertyOp46
 70
     1
102
RTVSPropertyOp47
 70
     1
102
RTVSPropertyOp48
 70
     1
102
RTVSPropertyOp49
 70
     1
102
RTVSPropertyOp50
 70
     1
102
RTVSPropertyOp51
 70
     0
102
RTVSPropertyOp52
 70
     0
102
RTVSPropertyOp53
 70
     1
102
RTVSPropertyOp54
 70
     1
102
RTVSPropertyOp55
 70
     1
102
RTVSPropertyOp56
 70
     1
102
RTVSPropertyOp57
 70
     1
102
RTVSPropertyOp58
 70
     1
102
RTVSPropertyOp59
 70
     1
102
RTVSPropertyOp60
 70
     1
102
RTVSPropertyOp61
 70
     1
102
RTVSPropertyOp62
 70
     1
  0
XRECORD
  5
62DC
102
{ACAD_REACTORS
330
62DB
102
}
330
62DB
100
AcDbXrecord
280
     1
102
RTVSPost2010Prop28
280
     0
102
RTVSPost2010PropOp28
 70
     1
102
RTVSPost2010Prop29
280
     1
102
RTVSPost2010PropOp29
 70
     1
102
RTVSPost2010Prop30
280
     1
102
RTVSPost2010PropOp30
 70
     1
102
RTVSPost2010Prop31
280
     0
102
RTVSPost2010PropOp31
 70
     1
102
RTVSPost2010Prop32
280
     0
102
RTVSPost2010PropOp32
 70
     1
102
RTVSPost2010Prop33
280
     0
102
RTVSPost2010PropOp33
 70
     1
102
RTVSPost2010Prop34
280
     0
102
RTVSPost2010PropOp34
 70
     1
102
RTVSPost2010Prop35
280
     0
102
RTVSPost2010PropOp35
 70
     1
102
RTVSPost2010Prop36
280
     0
102
RTVSPost2010PropOp36
 70
     1
102
RTVSPost2010Prop37
 90
       50
102
RTVSPost2010PropOp37
 70
     1
102
RTVSPost2010Prop38
140
0.0
102
RTVSPost2010PropOp38
 70
     1
102
RTVSPost2010Prop39
140
1.0
102
RTVSPost2010PropOp39
 70
     1
102
RTVSPost2010Prop40
 90
        0
102
RTVSPost2010PropOp40
 70
     1
102
RTVSPost2010Prop41ColorIndex
 90
       18
102
RTVSPost2010Prop41ColorRGB
 90
        0
102
RTVSPost2010PropOp41
 70
     1
102
RTVSPost2010Prop42
 90
       50
102
RTVSPost2010PropOp42
 70
     1
102
RTVSPost2010Prop43
 90
        3
102
RTVSPost2010PropOp43
 70
     1
102
RTVSPost2010Prop44ColorIndex
 90
        5
102
RTVSPost2010Prop44ColorRGB
 90
      255
102
RTVSPost2010PropOp44
 70
     1
102
RTVSPost2010Prop45
280
     0
102
RTVSPost2010PropOp45
 70
     1
102
RTVSPost2010Prop46
 90
       50
102
RTVSPost2010PropOp46
 70
     1
102
RTVSPost2010Prop47
 90
       50
102
RTVSPost2010PropOp47
 70
     1
102
RTVSPost2010Prop48
 90
       50
102
RTVSPost2010PropOp48
 70
     1
102
RTVSPost2010Prop49
280
     0
102
RTVSPost2010PropOp49
 70
     1
102
RTVSPost2010Prop50
 90
       50
102
RTVSPost2010PropOp50
 70
     1
102
RTVSPost2010Prop51ColorIndex
 90
      256
102
RTVSPost2010Prop51ColorRGB
 90
-16777216
102
RTVSPost2010PropOp51
 70
     0
102
RTVSPost2010Prop52
140
1.0
102
RTVSPost2010PropOp52
 70
     0
102
RTVSPost2010Prop53
 90
        2
102
RTVSPost2010PropOp53
 70
     1
102
RTVSPost2010Prop54
  1
strokes_ogs.tif
102
RTVSPost2010PropOp54
 70
     1
102
RTVSPost2010Prop55
280
     0
102
RTVSPost2010PropOp55
 70
     1
102
RTVSPost2010Prop56
140
1.0
102
RTVSPost2010PropOp56
 70
     1
102
RTVSPost2010Prop57
140
1.0
102
RTVSPost2010PropOp57
 70
     1
102
RTVSPropertyOp0
 70
     1
102
RTVSPropertyOp1
 70
     1
102
RTVSPropertyOp2
 70
     1
102
RTVSPropertyOp3
 70
     1
102
RTVSPropertyOp4
 70
     1
102
RTVSPropertyOp5
 70
     1
102
RTVSPropertyOp6
 70
     1
102
RTVSPropertyOp7
 70
     1
102
RTVSPropertyOp8
 70
     1
102
RTVSPropertyOp9
 70
     1
102
RTVSPropertyOp10
 70
     1
102
RTVSPropertyOp11
 70
     1
102
RTVSPropertyOp12
 70
     1
102
RTVSPropertyOp13
 70
     1
102
RTVSPropertyOp14
 70
     1
102
RTVSPropertyOp15
 70
     1
102
RTVSPropertyOp16
 70
     1
102
RTVSPropertyOp17
 70
     1
102
RTVSPropertyOp18
 70
     1
102
RTVSPropertyOp19
 70
     1
102
RTVSPropertyOp20
 70
     1
102
RTVSPropertyOp21
 70
     1
102
RTVSPropertyOp22
 70
     1
102
RTVSPropertyOp23
 70
     1
102
RTVSPropertyOp24
 70
     1
102
RTVSPropertyOp25
 70
     1
102
RTVSPropertyOp26
 70
     1
102
RTVSPropertyOp27
 70
     1
102
RTVSPropertyOp28
 70
     1
102
RTVSPropertyOp29
 70
     1
102
RTVSPropertyOp30
 70
     1
102
RTVSPropertyOp31
 70
     1
102
RTVSPropertyOp32
 70
     1
102
RTVSPropertyOp33
 70
     1
102
RTVSPropertyOp34
 70
     1
102
RTVSPropertyOp35
 70
     1
102
RTVSPropertyOp36
 70
     1
102
RTVSPropertyOp37
 70
     1
102
RTVSPropertyOp38
 70
     1
102
RTVSPropertyOp39
 70
     1
102
RTVSPropertyOp40
 70
     1
102
RTVSPropertyOp41
 70
     1
102
RTVSPropertyOp42
 70
     1
102
RTVSPropertyOp43
 70
     1
102
RTVSPropertyOp44
 70
     1
102
RTVSPropertyOp45
 70
     1
102
RTVSPropertyOp46
 70
     1
102
RTVSPropertyOp47
 70
     1
102
RTVSPropertyOp48
 70
     1
102
RTVSPropertyOp49
 70
     1
102
RTVSPropertyOp50
 70
     1
102
RTVSPropertyOp51
 70
     0
102
RTVSPropertyOp52
 70
     0
102
RTVSPropertyOp53
 70
     1
102
RTVSPropertyOp54
 70
     1
102
RTVSPropertyOp55
 70
     1
102
RTVSPropertyOp56
 70
     1
102
RTVSPropertyOp57
 70
     1
102
RTVSPropertyOp58
 70
     1
102
RTVSPropertyOp59
 70
     1
102
RTVSPropertyOp60
 70
     1
102
RTVSPropertyOp61
 70
     1
102
RTVSPropertyOp62
 70
     1
  0
XRECORD
  5
62E0
102
{ACAD_REACTORS
330
62DF
102
}
330
62DF
100
AcDbXrecord
280
     1
102
RTVSPost2010Prop28
280
     0
102
RTVSPost2010PropOp28
 70
     1
102
RTVSPost2010Prop29
280
     1
102
RTVSPost2010PropOp29
 70
     1
102
RTVSPost2010Prop30
280
     1
102
RTVSPost2010PropOp30
 70
     1
102
RTVSPost2010Prop31
280
     0
102
RTVSPost2010PropOp31
 70
     1
102
RTVSPost2010Prop32
280
     0
102
RTVSPost2010PropOp32
 70
     1
102
RTVSPost2010Prop33
280
     0
102
RTVSPost2010PropOp33
 70
     1
102
RTVSPost2010Prop34
280
     0
102
RTVSPost2010PropOp34
 70
     1
102
RTVSPost2010Prop35
280
     0
102
RTVSPost2010PropOp35
 70
     1
102
RTVSPost2010Prop36
280
     0
102
RTVSPost2010PropOp36
 70
     1
102
RTVSPost2010Prop37
 90
       50
102
RTVSPost2010PropOp37
 70
     1
102
RTVSPost2010Prop38
140
0.0
102
RTVSPost2010PropOp38
 70
     1
102
RTVSPost2010Prop39
140
1.0
102
RTVSPost2010PropOp39
 70
     1
102
RTVSPost2010Prop40
 90
        0
102
RTVSPost2010PropOp40
 70
     1
102
RTVSPost2010Prop41ColorIndex
 90
       18
102
RTVSPost2010Prop41ColorRGB
 90
        0
102
RTVSPost2010PropOp41
 70
     1
102
RTVSPost2010Prop42
 90
       50
102
RTVSPost2010PropOp42
 70
     1
102
RTVSPost2010Prop43
 90
        3
102
RTVSPost2010PropOp43
 70
     1
102
RTVSPost2010Prop44ColorIndex
 90
        5
102
RTVSPost2010Prop44ColorRGB
 90
      255
102
RTVSPost2010PropOp44
 70
     1
102
RTVSPost2010Prop45
280
     0
102
RTVSPost2010PropOp45
 70
     1
102
RTVSPost2010Prop46
 90
       50
102
RTVSPost2010PropOp46
 70
     1
102
RTVSPost2010Prop47
 90
       50
102
RTVSPost2010PropOp47
 70
     1
102
RTVSPost2010Prop48
 90
       50
102
RTVSPost2010PropOp48
 70
     1
102
RTVSPost2010Prop49
280
     0
102
RTVSPost2010PropOp49
 70
     1
102
RTVSPost2010Prop50
 90
       50
102
RTVSPost2010PropOp50
 70
     1
102
RTVSPost2010Prop51ColorIndex
 90
      256
102
RTVSPost2010Prop51ColorRGB
 90
-16777216
102
RTVSPost2010PropOp51
 70
     0
102
RTVSPost2010Prop52
140
1.0
102
RTVSPost2010PropOp52
 70
     0
102
RTVSPost2010Prop53
 90
        2
102
RTVSPost2010PropOp53
 70
     1
102
RTVSPost2010Prop54
  1
strokes_ogs.tif
102
RTVSPost2010PropOp54
 70
     1
102
RTVSPost2010Prop55
280
     0
102
RTVSPost2010PropOp55
 70
     1
102
RTVSPost2010Prop56
140
1.0
102
RTVSPost2010PropOp56
 70
     1
102
RTVSPost2010Prop57
140
1.0
102
RTVSPost2010PropOp57
 70
     1
102
RTVSPropertyOp0
 70
     1
102
RTVSPropertyOp1
 70
     1
102
RTVSPropertyOp2
 70
     1
102
RTVSPropertyOp3
 70
     1
102
RTVSPropertyOp4
 70
     1
102
RTVSPropertyOp5
 70
     1
102
RTVSPropertyOp6
 70
     1
102
RTVSPropertyOp7
 70
     1
102
RTVSPropertyOp8
 70
     1
102
RTVSPropertyOp9
 70
     1
102
RTVSPropertyOp10
 70
     1
102
RTVSPropertyOp11
 70
     1
102
RTVSPropertyOp12
 70
     1
102
RTVSPropertyOp13
 70
     1
102
RTVSPropertyOp14
 70
     1
102
RTVSPropertyOp15
 70
     1
102
RTVSPropertyOp16
 70
     1
102
RTVSPropertyOp17
 70
     1
102
RTVSPropertyOp18
 70
     1
102
RTVSPropertyOp19
 70
     1
102
RTVSPropertyOp20
 70
     1
102
RTVSPropertyOp21
 70
     1
102
RTVSPropertyOp22
 70
     1
102
RTVSPropertyOp23
 70
     1
102
RTVSPropertyOp24
 70
     1
102
RTVSPropertyOp25
 70
     1
102
RTVSPropertyOp26
 70
     1
102
RTVSPropertyOp27
 70
     1
102
RTVSPropertyOp28
 70
     1
102
RTVSPropertyOp29
 70
     1
102
RTVSPropertyOp30
 70
     1
102
RTVSPropertyOp31
 70
     1
102
RTVSPropertyOp32
 70
     1
102
RTVSPropertyOp33
 70
     1
102
RTVSPropertyOp34
 70
     1
102
RTVSPropertyOp35
 70
     1
102
RTVSPropertyOp36
 70
     1
102
RTVSPropertyOp37
 70
     1
102
RTVSPropertyOp38
 70
     1
102
RTVSPropertyOp39
 70
     1
102
RTVSPropertyOp40
 70
     1
102
RTVSPropertyOp41
 70
     1
102
RTVSPropertyOp42
 70
     1
102
RTVSPropertyOp43
 70
     1
102
RTVSPropertyOp44
 70
     1
102
RTVSPropertyOp45
 70
     1
102
RTVSPropertyOp46
 70
     1
102
RTVSPropertyOp47
 70
     1
102
RTVSPropertyOp48
 70
     1
102
RTVSPropertyOp49
 70
     1
102
RTVSPropertyOp50
 70
     1
102
RTVSPropertyOp51
 70
     0
102
RTVSPropertyOp52
 70
     0
102
RTVSPropertyOp53
 70
     1
102
RTVSPropertyOp54
 70
     1
102
RTVSPropertyOp55
 70
     1
102
RTVSPropertyOp56
 70
     1
102
RTVSPropertyOp57
 70
     1
102
RTVSPropertyOp58
 70
     1
102
RTVSPropertyOp59
 70
     1
102
RTVSPropertyOp60
 70
     1
102
RTVSPropertyOp61
 70
     1
102
RTVSPropertyOp62
 70
     1
  0
XRECORD
  5
62FA
102
{ACAD_REACTORS
330
62F9
102
}
330
62F9
100
AcDbXrecord
280
     1
102
RTVSPost2010Prop28
280
     0
102
RTVSPost2010PropOp28
 70
     1
102
RTVSPost2010Prop29
280
     1
102
RTVSPost2010PropOp29
 70
     1
102
RTVSPost2010Prop30
280
     1
102
RTVSPost2010PropOp30
 70
     1
102
RTVSPost2010Prop31
280
     0
102
RTVSPost2010PropOp31
 70
     1
102
RTVSPost2010Prop32
280
     0
102
RTVSPost2010PropOp32
 70
     1
102
RTVSPost2010Prop33
280
     0
102
RTVSPost2010PropOp33
 70
     1
102
RTVSPost2010Prop34
280
     0
102
RTVSPost2010PropOp34
 70
     1
102
RTVSPost2010Prop35
280
     0
102
RTVSPost2010PropOp35
 70
     1
102
RTVSPost2010Prop36
280
     0
102
RTVSPost2010PropOp36
 70
     1
102
RTVSPost2010Prop37
 90
       50
102
RTVSPost2010PropOp37
 70
     0
102
RTVSPost2010Prop38
140
0.0
102
RTVSPost2010PropOp38
 70
     0
102
RTVSPost2010Prop39
140
1.0
102
RTVSPost2010PropOp39
 70
     0
102
RTVSPost2010Prop40
 90
        0
102
RTVSPost2010PropOp40
 70
     0
102
RTVSPost2010Prop41ColorIndex
 90
       18
102
RTVSPost2010Prop41ColorRGB
 90
        0
102
RTVSPost2010PropOp41
 70
     0
102
RTVSPost2010Prop42
 90
       50
102
RTVSPost2010PropOp42
 70
     0
102
RTVSPost2010Prop43
 90
        3
102
RTVSPost2010PropOp43
 70
     0
102
RTVSPost2010Prop44ColorIndex
 90
        5
102
RTVSPost2010Prop44ColorRGB
 90
      255
102
RTVSPost2010PropOp44
 70
     0
102
RTVSPost2010Prop45
280
     0
102
RTVSPost2010PropOp45
 70
     1
102
RTVSPost2010Prop46
 90
       50
102
RTVSPost2010PropOp46
 70
     0
102
RTVSPost2010Prop47
 90
       50
102
RTVSPost2010PropOp47
 70
     0
102
RTVSPost2010Prop48
 90
       50
102
RTVSPost2010PropOp48
 70
     0
102
RTVSPost2010Prop49
280
     0
102
RTVSPost2010PropOp49
 70
     1
102
RTVSPost2010Prop50
 90
       50
102
RTVSPost2010PropOp50
 70
     0
102
RTVSPost2010Prop51ColorIndex
 90
      256
102
RTVSPost2010Prop51ColorRGB
 90
-16777216
102
RTVSPost2010PropOp51
 70
     0
102
RTVSPost2010Prop52
140
1.0
102
RTVSPost2010PropOp52
 70
     0
102
RTVSPost2010Prop53
 90
        2
102
RTVSPost2010PropOp53
 70
     0
102
RTVSPost2010Prop54
  1
strokes_ogs.tif
102
RTVSPost2010PropOp54
 70
     0
102
RTVSPost2010Prop55
280
     0
102
RTVSPost2010PropOp55
 70
     1
102
RTVSPost2010Prop56
140
1.0
102
RTVSPost2010PropOp56
 70
     0
102
RTVSPost2010Prop57
140
1.0
102
RTVSPost2010PropOp57
 70
     0
102
RTVSPropertyOp0
 70
     0
102
RTVSPropertyOp1
 70
     0
102
RTVSPropertyOp2
 70
     0
102
RTVSPropertyOp3
 70
     0
102
RTVSPropertyOp4
 70
     0
102
RTVSPropertyOp5
 70
     0
102
RTVSPropertyOp6
 70
     0
102
RTVSPropertyOp7
 70
     0
102
RTVSPropertyOp8
 70
     0
102
RTVSPropertyOp9
 70
     0
102
RTVSPropertyOp10
 70
     0
102
RTVSPropertyOp11
 70
     0
102
RTVSPropertyOp12
 70
     0
102
RTVSPropertyOp13
 70
     0
102
RTVSPropertyOp14
 70
     2
102
RTVSPropertyOp15
 70
     0
102
RTVSPropertyOp16
 70
     0
102
RTVSPropertyOp17
 70
     0
102
RTVSPropertyOp18
 70
     0
102
RTVSPropertyOp19
 70
     0
102
RTVSPropertyOp20
 70
     0
102
RTVSPropertyOp21
 70
     0
102
RTVSPropertyOp22
 70
     0
102
RTVSPropertyOp23
 70
     0
102
RTVSPropertyOp24
 70
     0
102
RTVSPropertyOp25
 70
     0
102
RTVSPropertyOp26
 70
     0
102
RTVSPropertyOp27
 70
     0
102
RTVSPropertyOp28
 70
     1
102
RTVSPropertyOp29
 70
     1
102
RTVSPropertyOp30
 70
     1
102
RTVSPropertyOp31
 70
     1
102
RTVSPropertyOp32
 70
     1
102
RTVSPropertyOp33
 70
     1
102
RTVSPropertyOp34
 70
     1
102
RTVSPropertyOp35
 70
     1
102
RTVSPropertyOp36
 70
     1
102
RTVSPropertyOp37
 70
     0
102
RTVSPropertyOp38
 70
     0
102
RTVSPropertyOp39
 70
     0
102
RTVSPropertyOp40
 70
     0
102
RTVSPropertyOp41
 70
     0
102
RTVSPropertyOp42
 70
     0
102
RTVSPropertyOp43
 70
     0
102
RTVSPropertyOp44
 70
     0
102
RTVSPropertyOp45
 70
     1
102
RTVSPropertyOp46
 70
     0
102
RTVSPropertyOp47
 70
     0
102
RTVSPropertyOp48
 70
     0
102
RTVSPropertyOp49
 70
     1
102
RTVSPropertyOp50
 70
     0
102
RTVSPropertyOp51
 70
     0
102
RTVSPropertyOp52
 70
     0
102
RTVSPropertyOp53
 70
     0
102
RTVSPropertyOp54
 70
     0
102
RTVSPropertyOp55
 70
     1
102
RTVSPropertyOp56
 70
     0
102
RTVSPropertyOp57
 70
     0
102
RTVSPropertyOp58
 70
     0
102
RTVSPropertyOp59
 70
     0
102
RTVSPropertyOp60
 70
     0
102
RTVSPropertyOp61
 70
     0
102
RTVSPropertyOp62
 70
     0
  0
XRECORD
  5
62E8
102
{ACAD_REACTORS
330
62E7
102
}
330
62E7
100
AcDbXrecord
280
     1
102
RTVSPost2010Prop28
280
     0
102
RTVSPost2010PropOp28
 70
     1
102
RTVSPost2010Prop29
280
     1
102
RTVSPost2010PropOp29
 70
     1
102
RTVSPost2010Prop30
280
     1
102
RTVSPost2010PropOp30
 70
     1
102
RTVSPost2010Prop31
280
     0
102
RTVSPost2010PropOp31
 70
     1
102
RTVSPost2010Prop32
280
     0
102
RTVSPost2010PropOp32
 70
     1
102
RTVSPost2010Prop33
280
     0
102
RTVSPost2010PropOp33
 70
     1
102
RTVSPost2010Prop34
280
     0
102
RTVSPost2010PropOp34
 70
     1
102
RTVSPost2010Prop35
280
     0
102
RTVSPost2010PropOp35
 70
     1
102
RTVSPost2010Prop36
280
     0
102
RTVSPost2010PropOp36
 70
     1
102
RTVSPost2010Prop37
 90
       50
102
RTVSPost2010PropOp37
 70
     1
102
RTVSPost2010Prop38
140
0.0
102
RTVSPost2010PropOp38
 70
     1
102
RTVSPost2010Prop39
140
1.0
102
RTVSPost2010PropOp39
 70
     1
102
RTVSPost2010Prop40
 90
        0
102
RTVSPost2010PropOp40
 70
     1
102
RTVSPost2010Prop41ColorIndex
 90
       18
102
RTVSPost2010Prop41ColorRGB
 90
        0
102
RTVSPost2010PropOp41
 70
     1
102
RTVSPost2010Prop42
 90
       50
102
RTVSPost2010PropOp42
 70
     1
102
RTVSPost2010Prop43
 90
        3
102
RTVSPost2010PropOp43
 70
     1
102
RTVSPost2010Prop44ColorIndex
 90
        5
102
RTVSPost2010Prop44ColorRGB
 90
      255
102
RTVSPost2010PropOp44
 70
     1
102
RTVSPost2010Prop45
280
     0
102
RTVSPost2010PropOp45
 70
     1
102
RTVSPost2010Prop46
 90
       50
102
RTVSPost2010PropOp46
 70
     1
102
RTVSPost2010Prop47
 90
       50
102
RTVSPost2010PropOp47
 70
     1
102
RTVSPost2010Prop48
 90
       50
102
RTVSPost2010PropOp48
 70
     1
102
RTVSPost2010Prop49
280
     0
102
RTVSPost2010PropOp49
 70
     1
102
RTVSPost2010Prop50
 90
       50
102
RTVSPost2010PropOp50
 70
     1
102
RTVSPost2010Prop51ColorIndex
 90
      256
102
RTVSPost2010Prop51ColorRGB
 90
-16777216
102
RTVSPost2010PropOp51
 70
     0
102
RTVSPost2010Prop52
140
1.0
102
RTVSPost2010PropOp52
 70
     0
102
RTVSPost2010Prop53
 90
        2
102
RTVSPost2010PropOp53
 70
     1
102
RTVSPost2010Prop54
  1
strokes_ogs.tif
102
RTVSPost2010PropOp54
 70
     1
102
RTVSPost2010Prop55
280
     0
102
RTVSPost2010PropOp55
 70
     1
102
RTVSPost2010Prop56
140
1.0
102
RTVSPost2010PropOp56
 70
     1
102
RTVSPost2010Prop57
140
1.0
102
RTVSPost2010PropOp57
 70
     1
102
RTVSPropertyOp0
 70
     1
102
RTVSPropertyOp1
 70
     1
102
RTVSPropertyOp2
 70
     1
102
RTVSPropertyOp3
 70
     1
102
RTVSPropertyOp4
 70
     1
102
RTVSPropertyOp5
 70
     1
102
RTVSPropertyOp6
 70
     1
102
RTVSPropertyOp7
 70
     1
102
RTVSPropertyOp8
 70
     1
102
RTVSPropertyOp9
 70
     1
102
RTVSPropertyOp10
 70
     1
102
RTVSPropertyOp11
 70
     1
102
RTVSPropertyOp12
 70
     1
102
RTVSPropertyOp13
 70
     1
102
RTVSPropertyOp14
 70
     1
102
RTVSPropertyOp15
 70
     1
102
RTVSPropertyOp16
 70
     1
102
RTVSPropertyOp17
 70
     1
102
RTVSPropertyOp18
 70
     1
102
RTVSPropertyOp19
 70
     1
102
RTVSPropertyOp20
 70
     1
102
RTVSPropertyOp21
 70
     1
102
RTVSPropertyOp22
 70
     1
102
RTVSPropertyOp23
 70
     1
102
RTVSPropertyOp24
 70
     1
102
RTVSPropertyOp25
 70
     1
102
RTVSPropertyOp26
 70
     1
102
RTVSPropertyOp27
 70
     1
102
RTVSPropertyOp28
 70
     1
102
RTVSPropertyOp29
 70
     1
102
RTVSPropertyOp30
 70
     1
102
RTVSPropertyOp31
 70
     1
102
RTVSPropertyOp32
 70
     1
102
RTVSPropertyOp33
 70
     1
102
RTVSPropertyOp34
 70
     1
102
RTVSPropertyOp35
 70
     1
102
RTVSPropertyOp36
 70
     1
102
RTVSPropertyOp37
 70
     1
102
RTVSPropertyOp38
 70
     1
102
RTVSPropertyOp39
 70
     1
102
RTVSPropertyOp40
 70
     1
102
RTVSPropertyOp41
 70
     1
102
RTVSPropertyOp42
 70
     1
102
RTVSPropertyOp43
 70
     1
102
RTVSPropertyOp44
 70
     1
102
RTVSPropertyOp45
 70
     1
102
RTVSPropertyOp46
 70
     1
102
RTVSPropertyOp47
 70
     1
102
RTVSPropertyOp48
 70
     1
102
RTVSPropertyOp49
 70
     1
102
RTVSPropertyOp50
 70
     1
102
RTVSPropertyOp51
 70
     0
102
RTVSPropertyOp52
 70
     0
102
RTVSPropertyOp53
 70
     1
102
RTVSPropertyOp54
 70
     1
102
RTVSPropertyOp55
 70
     1
102
RTVSPropertyOp56
 70
     1
102
RTVSPropertyOp57
 70
     1
102
RTVSPropertyOp58
 70
     1
102
RTVSPropertyOp59
 70
     1
102
RTVSPropertyOp60
 70
     1
102
RTVSPropertyOp61
 70
     1
102
RTVSPropertyOp62
 70
     1
  0
XRECORD
  5
62CC
102
{ACAD_REACTORS
330
62CB
102
}
330
62CB
100
AcDbXrecord
280
     1
102
RTVSPost2010Prop28
280
     0
102
RTVSPost2010PropOp28
 70
     1
102
RTVSPost2010Prop29
280
     1
102
RTVSPost2010PropOp29
 70
     1
102
RTVSPost2010Prop30
280
     1
102
RTVSPost2010PropOp30
 70
     1
102
RTVSPost2010Prop31
280
     0
102
RTVSPost2010PropOp31
 70
     1
102
RTVSPost2010Prop32
280
     0
102
RTVSPost2010PropOp32
 70
     1
102
RTVSPost2010Prop33
280
     0
102
RTVSPost2010PropOp33
 70
     1
102
RTVSPost2010Prop34
280
     0
102
RTVSPost2010PropOp34
 70
     1
102
RTVSPost2010Prop35
280
     0
102
RTVSPost2010PropOp35
 70
     1
102
RTVSPost2010Prop36
280
     0
102
RTVSPost2010PropOp36
 70
     1
102
RTVSPost2010Prop37
 90
       50
102
RTVSPost2010PropOp37
 70
     1
102
RTVSPost2010Prop38
140
0.0
102
RTVSPost2010PropOp38
 70
     1
102
RTVSPost2010Prop39
140
1.0
102
RTVSPost2010PropOp39
 70
     1
102
RTVSPost2010Prop40
 90
        0
102
RTVSPost2010PropOp40
 70
     1
102
RTVSPost2010Prop41ColorIndex
 90
       18
102
RTVSPost2010Prop41ColorRGB
 90
        0
102
RTVSPost2010PropOp41
 70
     1
102
RTVSPost2010Prop42
 90
       50
102
RTVSPost2010PropOp42
 70
     1
102
RTVSPost2010Prop43
 90
        3
102
RTVSPost2010PropOp43
 70
     1
102
RTVSPost2010Prop44ColorIndex
 90
        5
102
RTVSPost2010Prop44ColorRGB
 90
      255
102
RTVSPost2010PropOp44
 70
     1
102
RTVSPost2010Prop45
280
     0
102
RTVSPost2010PropOp45
 70
     1
102
RTVSPost2010Prop46
 90
       50
102
RTVSPost2010PropOp46
 70
     1
102
RTVSPost2010Prop47
 90
       50
102
RTVSPost2010PropOp47
 70
     1
102
RTVSPost2010Prop48
 90
       50
102
RTVSPost2010PropOp48
 70
     1
102
RTVSPost2010Prop49
280
     0
102
RTVSPost2010PropOp49
 70
     1
102
RTVSPost2010Prop50
 90
       50
102
RTVSPost2010PropOp50
 70
     1
102
RTVSPost2010Prop51ColorIndex
 90
      256
102
RTVSPost2010Prop51ColorRGB
 90
-16777216
102
RTVSPost2010PropOp51
 70
     0
102
RTVSPost2010Prop52
140
1.0
102
RTVSPost2010PropOp52
 70
     0
102
RTVSPost2010Prop53
 90
        2
102
RTVSPost2010PropOp53
 70
     1
102
RTVSPost2010Prop54
  1
strokes_ogs.tif
102
RTVSPost2010PropOp54
 70
     1
102
RTVSPost2010Prop55
280
     0
102
RTVSPost2010PropOp55
 70
     1
102
RTVSPost2010Prop56
140
1.0
102
RTVSPost2010PropOp56
 70
     1
102
RTVSPost2010Prop57
140
1.0
102
RTVSPost2010PropOp57
 70
     1
102
RTVSPropertyOp0
 70
     1
102
RTVSPropertyOp1
 70
     1
102
RTVSPropertyOp2
 70
     1
102
RTVSPropertyOp3
 70
     1
102
RTVSPropertyOp4
 70
     1
102
RTVSPropertyOp5
 70
     1
102
RTVSPropertyOp6
 70
     1
102
RTVSPropertyOp7
 70
     1
102
RTVSPropertyOp8
 70
     1
102
RTVSPropertyOp9
 70
     1
102
RTVSPropertyOp10
 70
     1
102
RTVSPropertyOp11
 70
     1
102
RTVSPropertyOp12
 70
     1
102
RTVSPropertyOp13
 70
     1
102
RTVSPropertyOp14
 70
     1
102
RTVSPropertyOp15
 70
     1
102
RTVSPropertyOp16
 70
     1
102
RTVSPropertyOp17
 70
     1
102
RTVSPropertyOp18
 70
     1
102
RTVSPropertyOp19
 70
     1
102
RTVSPropertyOp20
 70
     1
102
RTVSPropertyOp21
 70
     1
102
RTVSPropertyOp22
 70
     1
102
RTVSPropertyOp23
 70
     1
102
RTVSPropertyOp24
 70
     1
102
RTVSPropertyOp25
 70
     1
102
RTVSPropertyOp26
 70
     1
102
RTVSPropertyOp27
 70
     1
102
RTVSPropertyOp28
 70
     1
102
RTVSPropertyOp29
 70
     1
102
RTVSPropertyOp30
 70
     1
102
RTVSPropertyOp31
 70
     1
102
RTVSPropertyOp32
 70
     1
102
RTVSPropertyOp33
 70
     1
102
RTVSPropertyOp34
 70
     1
102
RTVSPropertyOp35
 70
     1
102
RTVSPropertyOp36
 70
     1
102
RTVSPropertyOp37
 70
     1
102
RTVSPropertyOp38
 70
     1
102
RTVSPropertyOp39
 70
     1
102
RTVSPropertyOp40
 70
     1
102
RTVSPropertyOp41
 70
     1
102
RTVSPropertyOp42
 70
     1
102
RTVSPropertyOp43
 70
     1
102
RTVSPropertyOp44
 70
     1
102
RTVSPropertyOp45
 70
     1
102
RTVSPropertyOp46
 70
     1
102
RTVSPropertyOp47
 70
     1
102
RTVSPropertyOp48
 70
     1
102
RTVSPropertyOp49
 70
     1
102
RTVSPropertyOp50
 70
     1
102
RTVSPropertyOp51
 70
     0
102
RTVSPropertyOp52
 70
     0
102
RTVSPropertyOp53
 70
     1
102
RTVSPropertyOp54
 70
     1
102
RTVSPropertyOp55
 70
     1
102
RTVSPropertyOp56
 70
     1
102
RTVSPropertyOp57
 70
     1
102
RTVSPropertyOp58
 70
     1
102
RTVSPropertyOp59
 70
     1
102
RTVSPropertyOp60
 70
     1
102
RTVSPropertyOp61
 70
     1
102
RTVSPropertyOp62
 70
     1
  0
XRECORD
  5
62CE
102
{ACAD_REACTORS
330
62CD
102
}
330
62CD
100
AcDbXrecord
280
     1
102
RTVSPost2010Prop28
280
     0
102
RTVSPost2010PropOp28
 70
     1
102
RTVSPost2010Prop29
280
     1
102
RTVSPost2010PropOp29
 70
     1
102
RTVSPost2010Prop30
280
     1
102
RTVSPost2010PropOp30
 70
     1
102
RTVSPost2010Prop31
280
     0
102
RTVSPost2010PropOp31
 70
     1
102
RTVSPost2010Prop32
280
     0
102
RTVSPost2010PropOp32
 70
     1
102
RTVSPost2010Prop33
280
     0
102
RTVSPost2010PropOp33
 70
     1
102
RTVSPost2010Prop34
280
     0
102
RTVSPost2010PropOp34
 70
     1
102
RTVSPost2010Prop35
280
     0
102
RTVSPost2010PropOp35
 70
     1
102
RTVSPost2010Prop36
280
     0
102
RTVSPost2010PropOp36
 70
     1
102
RTVSPost2010Prop37
 90
       50
102
RTVSPost2010PropOp37
 70
     1
102
RTVSPost2010Prop38
140
0.0
102
RTVSPost2010PropOp38
 70
     1
102
RTVSPost2010Prop39
140
1.0
102
RTVSPost2010PropOp39
 70
     1
102
RTVSPost2010Prop40
 90
        0
102
RTVSPost2010PropOp40
 70
     1
102
RTVSPost2010Prop41ColorIndex
 90
       18
102
RTVSPost2010Prop41ColorRGB
 90
        0
102
RTVSPost2010PropOp41
 70
     1
102
RTVSPost2010Prop42
 90
       50
102
RTVSPost2010PropOp42
 70
     1
102
RTVSPost2010Prop43
 90
        3
102
RTVSPost2010PropOp43
 70
     1
102
RTVSPost2010Prop44ColorIndex
 90
        5
102
RTVSPost2010Prop44ColorRGB
 90
      255
102
RTVSPost2010PropOp44
 70
     1
102
RTVSPost2010Prop45
280
     0
102
RTVSPost2010PropOp45
 70
     1
102
RTVSPost2010Prop46
 90
       50
102
RTVSPost2010PropOp46
 70
     1
102
RTVSPost2010Prop47
 90
       50
102
RTVSPost2010PropOp47
 70
     1
102
RTVSPost2010Prop48
 90
       50
102
RTVSPost2010PropOp48
 70
     1
102
RTVSPost2010Prop49
280
     0
102
RTVSPost2010PropOp49
 70
     1
102
RTVSPost2010Prop50
 90
       50
102
RTVSPost2010PropOp50
 70
     1
102
RTVSPost2010Prop51ColorIndex
 90
      256
102
RTVSPost2010Prop51ColorRGB
 90
-16777216
102
RTVSPost2010PropOp51
 70
     0
102
RTVSPost2010Prop52
140
1.0
102
RTVSPost2010PropOp52
 70
     0
102
RTVSPost2010Prop53
 90
        2
102
RTVSPost2010PropOp53
 70
     1
102
RTVSPost2010Prop54
  1
strokes_ogs.tif
102
RTVSPost2010PropOp54
 70
     1
102
RTVSPost2010Prop55
280
     0
102
RTVSPost2010PropOp55
 70
     1
102
RTVSPost2010Prop56
140
1.0
102
RTVSPost2010PropOp56
 70
     1
102
RTVSPost2010Prop57
140
1.0
102
RTVSPost2010PropOp57
 70
     1
102
RTVSPropertyOp0
 70
     1
102
RTVSPropertyOp1
 70
     1
102
RTVSPropertyOp2
 70
     1
102
RTVSPropertyOp3
 70
     1
102
RTVSPropertyOp4
 70
     1
102
RTVSPropertyOp5
 70
     1
102
RTVSPropertyOp6
 70
     1
102
RTVSPropertyOp7
 70
     1
102
RTVSPropertyOp8
 70
     1
102
RTVSPropertyOp9
 70
     1
102
RTVSPropertyOp10
 70
     1
102
RTVSPropertyOp11
 70
     1
102
RTVSPropertyOp12
 70
     1
102
RTVSPropertyOp13
 70
     1
102
RTVSPropertyOp14
 70
     1
102
RTVSPropertyOp15
 70
     1
102
RTVSPropertyOp16
 70
     1
102
RTVSPropertyOp17
 70
     1
102
RTVSPropertyOp18
 70
     1
102
RTVSPropertyOp19
 70
     1
102
RTVSPropertyOp20
 70
     1
102
RTVSPropertyOp21
 70
     1
102
RTVSPropertyOp22
 70
     1
102
RTVSPropertyOp23
 70
     1
102
RTVSPropertyOp24
 70
     1
102
RTVSPropertyOp25
 70
     1
102
RTVSPropertyOp26
 70
     1
102
RTVSPropertyOp27
 70
     1
102
RTVSPropertyOp28
 70
     1
102
RTVSPropertyOp29
 70
     1
102
RTVSPropertyOp30
 70
     1
102
RTVSPropertyOp31
 70
     1
102
RTVSPropertyOp32
 70
     1
102
RTVSPropertyOp33
 70
     1
102
RTVSPropertyOp34
 70
     1
102
RTVSPropertyOp35
 70
     1
102
RTVSPropertyOp36
 70
     1
102
RTVSPropertyOp37
 70
     1
102
RTVSPropertyOp38
 70
     1
102
RTVSPropertyOp39
 70
     1
102
RTVSPropertyOp40
 70
     1
102
RTVSPropertyOp41
 70
     1
102
RTVSPropertyOp42
 70
     1
102
RTVSPropertyOp43
 70
     1
102
RTVSPropertyOp44
 70
     1
102
RTVSPropertyOp45
 70
     1
102
RTVSPropertyOp46
 70
     1
102
RTVSPropertyOp47
 70
     1
102
RTVSPropertyOp48
 70
     1
102
RTVSPropertyOp49
 70
     1
102
RTVSPropertyOp50
 70
     1
102
RTVSPropertyOp51
 70
     0
102
RTVSPropertyOp52
 70
     0
102
RTVSPropertyOp53
 70
     1
102
RTVSPropertyOp54
 70
     1
102
RTVSPropertyOp55
 70
     1
102
RTVSPropertyOp56
 70
     1
102
RTVSPropertyOp57
 70
     1
102
RTVSPropertyOp58
 70
     1
102
RTVSPropertyOp59
 70
     1
102
RTVSPropertyOp60
 70
     1
102
RTVSPropertyOp61
 70
     1
102
RTVSPropertyOp62
 70
     1
  0
XRECORD
  5
62D0
102
{ACAD_REACTORS
330
62CF
102
}
330
62CF
100
AcDbXrecord
280
     1
102
RTVSPost2010Prop28
280
     0
102
RTVSPost2010PropOp28
 70
     1
102
RTVSPost2010Prop29
280
     1
102
RTVSPost2010PropOp29
 70
     1
102
RTVSPost2010Prop30
280
     1
102
RTVSPost2010PropOp30
 70
     1
102
RTVSPost2010Prop31
280
     0
102
RTVSPost2010PropOp31
 70
     1
102
RTVSPost2010Prop32
280
     0
102
RTVSPost2010PropOp32
 70
     1
102
RTVSPost2010Prop33
280
     0
102
RTVSPost2010PropOp33
 70
     1
102
RTVSPost2010Prop34
280
     0
102
RTVSPost2010PropOp34
 70
     1
102
RTVSPost2010Prop35
280
     0
102
RTVSPost2010PropOp35
 70
     1
102
RTVSPost2010Prop36
280
     0
102
RTVSPost2010PropOp36
 70
     1
102
RTVSPost2010Prop37
 90
       50
102
RTVSPost2010PropOp37
 70
     1
102
RTVSPost2010Prop38
140
0.0
102
RTVSPost2010PropOp38
 70
     1
102
RTVSPost2010Prop39
140
1.0
102
RTVSPost2010PropOp39
 70
     1
102
RTVSPost2010Prop40
 90
        0
102
RTVSPost2010PropOp40
 70
     1
102
RTVSPost2010Prop41ColorIndex
 90
       18
102
RTVSPost2010Prop41ColorRGB
 90
        0
102
RTVSPost2010PropOp41
 70
     1
102
RTVSPost2010Prop42
 90
       50
102
RTVSPost2010PropOp42
 70
     1
102
RTVSPost2010Prop43
 90
        3
102
RTVSPost2010PropOp43
 70
     1
102
RTVSPost2010Prop44ColorIndex
 90
        5
102
RTVSPost2010Prop44ColorRGB
 90
      255
102
RTVSPost2010PropOp44
 70
     1
102
RTVSPost2010Prop45
280
     0
102
RTVSPost2010PropOp45
 70
     1
102
RTVSPost2010Prop46
 90
       50
102
RTVSPost2010PropOp46
 70
     1
102
RTVSPost2010Prop47
 90
       50
102
RTVSPost2010PropOp47
 70
     1
102
RTVSPost2010Prop48
 90
       50
102
RTVSPost2010PropOp48
 70
     1
102
RTVSPost2010Prop49
280
     0
102
RTVSPost2010PropOp49
 70
     1
102
RTVSPost2010Prop50
 90
       50
102
RTVSPost2010PropOp50
 70
     1
102
RTVSPost2010Prop51ColorIndex
 90
      256
102
RTVSPost2010Prop51ColorRGB
 90
-16777216
102
RTVSPost2010PropOp51
 70
     0
102
RTVSPost2010Prop52
140
1.0
102
RTVSPost2010PropOp52
 70
     0
102
RTVSPost2010Prop53
 90
        2
102
RTVSPost2010PropOp53
 70
     1
102
RTVSPost2010Prop54
  1
strokes_ogs.tif
102
RTVSPost2010PropOp54
 70
     1
102
RTVSPost2010Prop55
280
     0
102
RTVSPost2010PropOp55
 70
     1
102
RTVSPost2010Prop56
140
1.0
102
RTVSPost2010PropOp56
 70
     1
102
RTVSPost2010Prop57
140
1.0
102
RTVSPost2010PropOp57
 70
     1
102
RTVSPropertyOp0
 70
     1
102
RTVSPropertyOp1
 70
     1
102
RTVSPropertyOp2
 70
     1
102
RTVSPropertyOp3
 70
     1
102
RTVSPropertyOp4
 70
     1
102
RTVSPropertyOp5
 70
     1
102
RTVSPropertyOp6
 70
     1
102
RTVSPropertyOp7
 70
     1
102
RTVSPropertyOp8
 70
     1
102
RTVSPropertyOp9
 70
     1
102
RTVSPropertyOp10
 70
     1
102
RTVSPropertyOp11
 70
     1
102
RTVSPropertyOp12
 70
     1
102
RTVSPropertyOp13
 70
     1
102
RTVSPropertyOp14
 70
     1
102
RTVSPropertyOp15
 70
     1
102
RTVSPropertyOp16
 70
     1
102
RTVSPropertyOp17
 70
     1
102
RTVSPropertyOp18
 70
     1
102
RTVSPropertyOp19
 70
     1
102
RTVSPropertyOp20
 70
     1
102
RTVSPropertyOp21
 70
     1
102
RTVSPropertyOp22
 70
     1
102
RTVSPropertyOp23
 70
     1
102
RTVSPropertyOp24
 70
     1
102
RTVSPropertyOp25
 70
     1
102
RTVSPropertyOp26
 70
     1
102
RTVSPropertyOp27
 70
     1
102
RTVSPropertyOp28
 70
     1
102
RTVSPropertyOp29
 70
     1
102
RTVSPropertyOp30
 70
     1
102
RTVSPropertyOp31
 70
     1
102
RTVSPropertyOp32
 70
     1
102
RTVSPropertyOp33
 70
     1
102
RTVSPropertyOp34
 70
     1
102
RTVSPropertyOp35
 70
     1
102
RTVSPropertyOp36
 70
     1
102
RTVSPropertyOp37
 70
     1
102
RTVSPropertyOp38
 70
     1
102
RTVSPropertyOp39
 70
     1
102
RTVSPropertyOp40
 70
     1
102
RTVSPropertyOp41
 70
     1
102
RTVSPropertyOp42
 70
     1
102
RTVSPropertyOp43
 70
     1
102
RTVSPropertyOp44
 70
     1
102
RTVSPropertyOp45
 70
     1
102
RTVSPropertyOp46
 70
     1
102
RTVSPropertyOp47
 70
     1
102
RTVSPropertyOp48
 70
     1
102
RTVSPropertyOp49
 70
     1
102
RTVSPropertyOp50
 70
     1
102
RTVSPropertyOp51
 70
     0
102
RTVSPropertyOp52
 70
     0
102
RTVSPropertyOp53
 70
     1
102
RTVSPropertyOp54
 70
     1
102
RTVSPropertyOp55
 70
     1
102
RTVSPropertyOp56
 70
     1
102
RTVSPropertyOp57
 70
     1
102
RTVSPropertyOp58
 70
     1
102
RTVSPropertyOp59
 70
     1
102
RTVSPropertyOp60
 70
     1
102
RTVSPropertyOp61
 70
     1
102
RTVSPropertyOp62
 70
     1
  0
XRECORD
  5
62D2
102
{ACAD_REACTORS
330
62D1
102
}
330
62D1
100
AcDbXrecord
280
     1
102
RTVSPost2010Prop28
280
     0
102
RTVSPost2010PropOp28
 70
     1
102
RTVSPost2010Prop29
280
     1
102
RTVSPost2010PropOp29
 70
     1
102
RTVSPost2010Prop30
280
     1
102
RTVSPost2010PropOp30
 70
     1
102
RTVSPost2010Prop31
280
     0
102
RTVSPost2010PropOp31
 70
     1
102
RTVSPost2010Prop32
280
     0
102
RTVSPost2010PropOp32
 70
     1
102
RTVSPost2010Prop33
280
     0
102
RTVSPost2010PropOp33
 70
     1
102
RTVSPost2010Prop34
280
     0
102
RTVSPost2010PropOp34
 70
     1
102
RTVSPost2010Prop35
280
     0
102
RTVSPost2010PropOp35
 70
     1
102
RTVSPost2010Prop36
280
     0
102
RTVSPost2010PropOp36
 70
     1
102
RTVSPost2010Prop37
 90
       50
102
RTVSPost2010PropOp37
 70
     1
102
RTVSPost2010Prop38
140
0.0
102
RTVSPost2010PropOp38
 70
     1
102
RTVSPost2010Prop39
140
1.0
102
RTVSPost2010PropOp39
 70
     1
102
RTVSPost2010Prop40
 90
        0
102
RTVSPost2010PropOp40
 70
     1
102
RTVSPost2010Prop41ColorIndex
 90
       18
102
RTVSPost2010Prop41ColorRGB
 90
        0
102
RTVSPost2010PropOp41
 70
     1
102
RTVSPost2010Prop42
 90
       50
102
RTVSPost2010PropOp42
 70
     1
102
RTVSPost2010Prop43
 90
        3
102
RTVSPost2010PropOp43
 70
     1
102
RTVSPost2010Prop44ColorIndex
 90
        5
102
RTVSPost2010Prop44ColorRGB
 90
      255
102
RTVSPost2010PropOp44
 70
     1
102
RTVSPost2010Prop45
280
     0
102
RTVSPost2010PropOp45
 70
     1
102
RTVSPost2010Prop46
 90
       50
102
RTVSPost2010PropOp46
 70
     1
102
RTVSPost2010Prop47
 90
       50
102
RTVSPost2010PropOp47
 70
     1
102
RTVSPost2010Prop48
 90
       50
102
RTVSPost2010PropOp48
 70
     1
102
RTVSPost2010Prop49
280
     0
102
RTVSPost2010PropOp49
 70
     1
102
RTVSPost2010Prop50
 90
       50
102
RTVSPost2010PropOp50
 70
     1
102
RTVSPost2010Prop51ColorIndex
 90
      256
102
RTVSPost2010Prop51ColorRGB
 90
-16777216
102
RTVSPost2010PropOp51
 70
     0
102
RTVSPost2010Prop52
140
1.0
102
RTVSPost2010PropOp52
 70
     0
102
RTVSPost2010Prop53
 90
        2
102
RTVSPost2010PropOp53
 70
     1
102
RTVSPost2010Prop54
  1
strokes_ogs.tif
102
RTVSPost2010PropOp54
 70
     1
102
RTVSPost2010Prop55
280
     0
102
RTVSPost2010PropOp55
 70
     1
102
RTVSPost2010Prop56
140
1.0
102
RTVSPost2010PropOp56
 70
     1
102
RTVSPost2010Prop57
140
1.0
102
RTVSPost2010PropOp57
 70
     1
102
RTVSPropertyOp0
 70
     1
102
RTVSPropertyOp1
 70
     1
102
RTVSPropertyOp2
 70
     1
102
RTVSPropertyOp3
 70
     1
102
RTVSPropertyOp4
 70
     1
102
RTVSPropertyOp5
 70
     1
102
RTVSPropertyOp6
 70
     1
102
RTVSPropertyOp7
 70
     1
102
RTVSPropertyOp8
 70
     1
102
RTVSPropertyOp9
 70
     1
102
RTVSPropertyOp10
 70
     1
102
RTVSPropertyOp11
 70
     1
102
RTVSPropertyOp12
 70
     1
102
RTVSPropertyOp13
 70
     1
102
RTVSPropertyOp14
 70
     1
102
RTVSPropertyOp15
 70
     1
102
RTVSPropertyOp16
 70
     1
102
RTVSPropertyOp17
 70
     1
102
RTVSPropertyOp18
 70
     1
102
RTVSPropertyOp19
 70
     1
102
RTVSPropertyOp20
 70
     1
102
RTVSPropertyOp21
 70
     1
102
RTVSPropertyOp22
 70
     1
102
RTVSPropertyOp23
 70
     1
102
RTVSPropertyOp24
 70
     1
102
RTVSPropertyOp25
 70
     1
102
RTVSPropertyOp26
 70
     1
102
RTVSPropertyOp27
 70
     1
102
RTVSPropertyOp28
 70
     1
102
RTVSPropertyOp29
 70
     1
102
RTVSPropertyOp30
 70
     1
102
RTVSPropertyOp31
 70
     1
102
RTVSPropertyOp32
 70
     1
102
RTVSPropertyOp33
 70
     1
102
RTVSPropertyOp34
 70
     1
102
RTVSPropertyOp35
 70
     1
102
RTVSPropertyOp36
 70
     1
102
RTVSPropertyOp37
 70
     1
102
RTVSPropertyOp38
 70
     1
102
RTVSPropertyOp39
 70
     1
102
RTVSPropertyOp40
 70
     1
102
RTVSPropertyOp41
 70
     1
102
RTVSPropertyOp42
 70
     1
102
RTVSPropertyOp43
 70
     1
102
RTVSPropertyOp44
 70
     1
102
RTVSPropertyOp45
 70
     1
102
RTVSPropertyOp46
 70
     1
102
RTVSPropertyOp47
 70
     1
102
RTVSPropertyOp48
 70
     1
102
RTVSPropertyOp49
 70
     1
102
RTVSPropertyOp50
 70
     1
102
RTVSPropertyOp51
 70
     0
102
RTVSPropertyOp52
 70
     0
102
RTVSPropertyOp53
 70
     1
102
RTVSPropertyOp54
 70
     1
102
RTVSPropertyOp55
 70
     1
102
RTVSPropertyOp56
 70
     1
102
RTVSPropertyOp57
 70
     1
102
RTVSPropertyOp58
 70
     1
102
RTVSPropertyOp59
 70
     1
102
RTVSPropertyOp60
 70
     1
102
RTVSPropertyOp61
 70
     1
102
RTVSPropertyOp62
 70
     1
  0
XRECORD
  5
62DA
102
{ACAD_REACTORS
330
62D9
102
}
330
62D9
100
AcDbXrecord
280
     1
102
RTVSPost2010Prop28
280
     0
102
RTVSPost2010PropOp28
 70
     1
102
RTVSPost2010Prop29
280
     1
102
RTVSPost2010PropOp29
 70
     1
102
RTVSPost2010Prop30
280
     1
102
RTVSPost2010PropOp30
 70
     1
102
RTVSPost2010Prop31
280
     0
102
RTVSPost2010PropOp31
 70
     1
102
RTVSPost2010Prop32
280
     0
102
RTVSPost2010PropOp32
 70
     1
102
RTVSPost2010Prop33
280
     0
102
RTVSPost2010PropOp33
 70
     1
102
RTVSPost2010Prop34
280
     0
102
RTVSPost2010PropOp34
 70
     1
102
RTVSPost2010Prop35
280
     0
102
RTVSPost2010PropOp35
 70
     1
102
RTVSPost2010Prop36
280
     0
102
RTVSPost2010PropOp36
 70
     1
102
RTVSPost2010Prop37
 90
       50
102
RTVSPost2010PropOp37
 70
     1
102
RTVSPost2010Prop38
140
0.0
102
RTVSPost2010PropOp38
 70
     1
102
RTVSPost2010Prop39
140
1.0
102
RTVSPost2010PropOp39
 70
     1
102
RTVSPost2010Prop40
 90
        0
102
RTVSPost2010PropOp40
 70
     1
102
RTVSPost2010Prop41ColorIndex
 90
       18
102
RTVSPost2010Prop41ColorRGB
 90
        0
102
RTVSPost2010PropOp41
 70
     1
102
RTVSPost2010Prop42
 90
       50
102
RTVSPost2010PropOp42
 70
     1
102
RTVSPost2010Prop43
 90
        3
102
RTVSPost2010PropOp43
 70
     1
102
RTVSPost2010Prop44ColorIndex
 90
        5
102
RTVSPost2010Prop44ColorRGB
 90
      255
102
RTVSPost2010PropOp44
 70
     1
102
RTVSPost2010Prop45
280
     0
102
RTVSPost2010PropOp45
 70
     1
102
RTVSPost2010Prop46
 90
       50
102
RTVSPost2010PropOp46
 70
     1
102
RTVSPost2010Prop47
 90
       50
102
RTVSPost2010PropOp47
 70
     1
102
RTVSPost2010Prop48
 90
       50
102
RTVSPost2010PropOp48
 70
     1
102
RTVSPost2010Prop49
280
     0
102
RTVSPost2010PropOp49
 70
     1
102
RTVSPost2010Prop50
 90
       50
102
RTVSPost2010PropOp50
 70
     1
102
RTVSPost2010Prop51ColorIndex
 90
      256
102
RTVSPost2010Prop51ColorRGB
 90
-16777216
102
RTVSPost2010PropOp51
 70
     0
102
RTVSPost2010Prop52
140
1.0
102
RTVSPost2010PropOp52
 70
     0
102
RTVSPost2010Prop53
 90
        2
102
RTVSPost2010PropOp53
 70
     1
102
RTVSPost2010Prop54
  1
strokes_ogs.tif
102
RTVSPost2010PropOp54
 70
     1
102
RTVSPost2010Prop55
280
     0
102
RTVSPost2010PropOp55
 70
     1
102
RTVSPost2010Prop56
140
1.0
102
RTVSPost2010PropOp56
 70
     1
102
RTVSPost2010Prop57
140
1.0
102
RTVSPost2010PropOp57
 70
     1
102
RTVSPropertyOp0
 70
     1
102
RTVSPropertyOp1
 70
     1
102
RTVSPropertyOp2
 70
     1
102
RTVSPropertyOp3
 70
     1
102
RTVSPropertyOp4
 70
     1
102
RTVSPropertyOp5
 70
     1
102
RTVSPropertyOp6
 70
     1
102
RTVSPropertyOp7
 70
     1
102
RTVSPropertyOp8
 70
     1
102
RTVSPropertyOp9
 70
     1
102
RTVSPropertyOp10
 70
     1
102
RTVSPropertyOp11
 70
     1
102
RTVSPropertyOp12
 70
     1
102
RTVSPropertyOp13
 70
     1
102
RTVSPropertyOp14
 70
     1
102
RTVSPropertyOp15
 70
     1
102
RTVSPropertyOp16
 70
     1
102
RTVSPropertyOp17
 70
     1
102
RTVSPropertyOp18
 70
     1
102
RTVSPropertyOp19
 70
     1
102
RTVSPropertyOp20
 70
     1
102
RTVSPropertyOp21
 70
     1
102
RTVSPropertyOp22
 70
     1
102
RTVSPropertyOp23
 70
     1
102
RTVSPropertyOp24
 70
     1
102
RTVSPropertyOp25
 70
     1
102
RTVSPropertyOp26
 70
     1
102
RTVSPropertyOp27
 70
     1
102
RTVSPropertyOp28
 70
     1
102
RTVSPropertyOp29
 70
     1
102
RTVSPropertyOp30
 70
     1
102
RTVSPropertyOp31
 70
     1
102
RTVSPropertyOp32
 70
     1
102
RTVSPropertyOp33
 70
     1
102
RTVSPropertyOp34
 70
     1
102
RTVSPropertyOp35
 70
     1
102
RTVSPropertyOp36
 70
     1
102
RTVSPropertyOp37
 70
     1
102
RTVSPropertyOp38
 70
     1
102
RTVSPropertyOp39
 70
     1
102
RTVSPropertyOp40
 70
     1
102
RTVSPropertyOp41
 70
     1
102
RTVSPropertyOp42
 70
     1
102
RTVSPropertyOp43
 70
     1
102
RTVSPropertyOp44
 70
     1
102
RTVSPropertyOp45
 70
     1
102
RTVSPropertyOp46
 70
     1
102
RTVSPropertyOp47
 70
     1
102
RTVSPropertyOp48
 70
     1
102
RTVSPropertyOp49
 70
     1
102
RTVSPropertyOp50
 70
     1
102
RTVSPropertyOp51
 70
     0
102
RTVSPropertyOp52
 70
     0
102
RTVSPropertyOp53
 70
     1
102
RTVSPropertyOp54
 70
     1
102
RTVSPropertyOp55
 70
     1
102
RTVSPropertyOp56
 70
     1
102
RTVSPropertyOp57
 70
     1
102
RTVSPropertyOp58
 70
     1
102
RTVSPropertyOp59
 70
     1
102
RTVSPropertyOp60
 70
     1
102
RTVSPropertyOp61
 70
     1
102
RTVSPropertyOp62
 70
     1
  0
XRECORD
  5
62F6
102
{ACAD_REACTORS
330
62F5
102
}
330
62F5
100
AcDbXrecord
280
     1
102
RTVSPost2010Prop28
280
     0
102
RTVSPost2010PropOp28
 70
     1
102
RTVSPost2010Prop29
280
     1
102
RTVSPost2010PropOp29
 70
     1
102
RTVSPost2010Prop30
280
     1
102
RTVSPost2010PropOp30
 70
     1
102
RTVSPost2010Prop31
280
     0
102
RTVSPost2010PropOp31
 70
     1
102
RTVSPost2010Prop32
280
     0
102
RTVSPost2010PropOp32
 70
     1
102
RTVSPost2010Prop33
280
     0
102
RTVSPost2010PropOp33
 70
     1
102
RTVSPost2010Prop34
280
     0
102
RTVSPost2010PropOp34
 70
     1
102
RTVSPost2010Prop35
280
     0
102
RTVSPost2010PropOp35
 70
     1
102
RTVSPost2010Prop36
280
     0
102
RTVSPost2010PropOp36
 70
     1
102
RTVSPost2010Prop37
 90
       50
102
RTVSPost2010PropOp37
 70
     0
102
RTVSPost2010Prop38
140
0.0
102
RTVSPost2010PropOp38
 70
     0
102
RTVSPost2010Prop39
140
1.0
102
RTVSPost2010PropOp39
 70
     0
102
RTVSPost2010Prop40
 90
        0
102
RTVSPost2010PropOp40
 70
     0
102
RTVSPost2010Prop41ColorIndex
 90
       18
102
RTVSPost2010Prop41ColorRGB
 90
        0
102
RTVSPost2010PropOp41
 70
     0
102
RTVSPost2010Prop42
 90
       50
102
RTVSPost2010PropOp42
 70
     0
102
RTVSPost2010Prop43
 90
        3
102
RTVSPost2010PropOp43
 70
     0
102
RTVSPost2010Prop44ColorIndex
 90
        5
102
RTVSPost2010Prop44ColorRGB
 90
      255
102
RTVSPost2010PropOp44
 70
     0
102
RTVSPost2010Prop45
280
     0
102
RTVSPost2010PropOp45
 70
     1
102
RTVSPost2010Prop46
 90
       50
102
RTVSPost2010PropOp46
 70
     0
102
RTVSPost2010Prop47
 90
       50
102
RTVSPost2010PropOp47
 70
     0
102
RTVSPost2010Prop48
 90
       50
102
RTVSPost2010PropOp48
 70
     0
102
RTVSPost2010Prop49
280
     0
102
RTVSPost2010PropOp49
 70
     1
102
RTVSPost2010Prop50
 90
       50
102
RTVSPost2010PropOp50
 70
     0
102
RTVSPost2010Prop51ColorIndex
 90
      256
102
RTVSPost2010Prop51ColorRGB
 90
-16777216
102
RTVSPost2010PropOp51
 70
     0
102
RTVSPost2010Prop52
140
1.0
102
RTVSPost2010PropOp52
 70
     0
102
RTVSPost2010Prop53
 90
        2
102
RTVSPost2010PropOp53
 70
     0
102
RTVSPost2010Prop54
  1
strokes_ogs.tif
102
RTVSPost2010PropOp54
 70
     0
102
RTVSPost2010Prop55
280
     0
102
RTVSPost2010PropOp55
 70
     1
102
RTVSPost2010Prop56
140
1.0
102
RTVSPost2010PropOp56
 70
     0
102
RTVSPost2010Prop57
140
1.0
102
RTVSPost2010PropOp57
 70
     0
102
RTVSPropertyOp0
 70
     0
102
RTVSPropertyOp1
 70
     0
102
RTVSPropertyOp2
 70
     0
102
RTVSPropertyOp3
 70
     0
102
RTVSPropertyOp4
 70
     0
102
RTVSPropertyOp5
 70
     0
102
RTVSPropertyOp6
 70
     0
102
RTVSPropertyOp7
 70
     0
102
RTVSPropertyOp8
 70
     0
102
RTVSPropertyOp9
 70
     0
102
RTVSPropertyOp10
 70
     0
102
RTVSPropertyOp11
 70
     0
102
RTVSPropertyOp12
 70
     0
102
RTVSPropertyOp13
 70
     0
102
RTVSPropertyOp14
 70
     2
102
RTVSPropertyOp15
 70
     0
102
RTVSPropertyOp16
 70
     0
102
RTVSPropertyOp17
 70
     0
102
RTVSPropertyOp18
 70
     0
102
RTVSPropertyOp19
 70
     0
102
RTVSPropertyOp20
 70
     0
102
RTVSPropertyOp21
 70
     0
102
RTVSPropertyOp22
 70
     0
102
RTVSPropertyOp23
 70
     0
102
RTVSPropertyOp24
 70
     0
102
RTVSPropertyOp25
 70
     0
102
RTVSPropertyOp26
 70
     0
102
RTVSPropertyOp27
 70
     0
102
RTVSPropertyOp28
 70
     1
102
RTVSPropertyOp29
 70
     1
102
RTVSPropertyOp30
 70
     1
102
RTVSPropertyOp31
 70
     1
102
RTVSPropertyOp32
 70
     1
102
RTVSPropertyOp33
 70
     1
102
RTVSPropertyOp34
 70
     1
102
RTVSPropertyOp35
 70
     1
102
RTVSPropertyOp36
 70
     1
102
RTVSPropertyOp37
 70
     0
102
RTVSPropertyOp38
 70
     0
102
RTVSPropertyOp39
 70
     0
102
RTVSPropertyOp40
 70
     0
102
RTVSPropertyOp41
 70
     0
102
RTVSPropertyOp42
 70
     0
102
RTVSPropertyOp43
 70
     0
102
RTVSPropertyOp44
 70
     0
102
RTVSPropertyOp45
 70
     1
102
RTVSPropertyOp46
 70
     0
102
RTVSPropertyOp47
 70
     0
102
RTVSPropertyOp48
 70
     0
102
RTVSPropertyOp49
 70
     1
102
RTVSPropertyOp50
 70
     0
102
RTVSPropertyOp51
 70
     0
102
RTVSPropertyOp52
 70
     0
102
RTVSPropertyOp53
 70
     0
102
RTVSPropertyOp54
 70
     0
102
RTVSPropertyOp55
 70
     1
102
RTVSPropertyOp56
 70
     0
102
RTVSPropertyOp57
 70
     0
102
RTVSPropertyOp58
 70
     0
102
RTVSPropertyOp59
 70
     0
102
RTVSPropertyOp60
 70
     0
102
RTVSPropertyOp61
 70
     0
102
RTVSPropertyOp62
 70
     0
  0
XRECORD
  5
62E6
102
{ACAD_REACTORS
330
62E5
102
}
330
62E5
100
AcDbXrecord
280
     1
102
RTVSPost2010Prop28
280
     0
102
RTVSPost2010PropOp28
 70
     1
102
RTVSPost2010Prop29
280
     1
102
RTVSPost2010PropOp29
 70
     1
102
RTVSPost2010Prop30
280
     1
102
RTVSPost2010PropOp30
 70
     1
102
RTVSPost2010Prop31
280
     0
102
RTVSPost2010PropOp31
 70
     1
102
RTVSPost2010Prop32
280
     0
102
RTVSPost2010PropOp32
 70
     1
102
RTVSPost2010Prop33
280
     0
102
RTVSPost2010PropOp33
 70
     1
102
RTVSPost2010Prop34
280
     0
102
RTVSPost2010PropOp34
 70
     1
102
RTVSPost2010Prop35
280
     0
102
RTVSPost2010PropOp35
 70
     1
102
RTVSPost2010Prop36
280
     0
102
RTVSPost2010PropOp36
 70
     1
102
RTVSPost2010Prop37
 90
       50
102
RTVSPost2010PropOp37
 70
     1
102
RTVSPost2010Prop38
140
0.0
102
RTVSPost2010PropOp38
 70
     1
102
RTVSPost2010Prop39
140
1.0
102
RTVSPost2010PropOp39
 70
     1
102
RTVSPost2010Prop40
 90
        0
102
RTVSPost2010PropOp40
 70
     1
102
RTVSPost2010Prop41ColorIndex
 90
       18
102
RTVSPost2010Prop41ColorRGB
 90
        0
102
RTVSPost2010PropOp41
 70
     1
102
RTVSPost2010Prop42
 90
       50
102
RTVSPost2010PropOp42
 70
     1
102
RTVSPost2010Prop43
 90
        3
102
RTVSPost2010PropOp43
 70
     1
102
RTVSPost2010Prop44ColorIndex
 90
        5
102
RTVSPost2010Prop44ColorRGB
 90
      255
102
RTVSPost2010PropOp44
 70
     1
102
RTVSPost2010Prop45
280
     0
102
RTVSPost2010PropOp45
 70
     1
102
RTVSPost2010Prop46
 90
       50
102
RTVSPost2010PropOp46
 70
     1
102
RTVSPost2010Prop47
 90
       50
102
RTVSPost2010PropOp47
 70
     1
102
RTVSPost2010Prop48
 90
       50
102
RTVSPost2010PropOp48
 70
     1
102
RTVSPost2010Prop49
280
     0
102
RTVSPost2010PropOp49
 70
     1
102
RTVSPost2010Prop50
 90
       50
102
RTVSPost2010PropOp50
 70
     1
102
RTVSPost2010Prop51ColorIndex
 90
      256
102
RTVSPost2010Prop51ColorRGB
 90
-16777216
102
RTVSPost2010PropOp51
 70
     0
102
RTVSPost2010Prop52
140
1.0
102
RTVSPost2010PropOp52
 70
     0
102
RTVSPost2010Prop53
 90
        2
102
RTVSPost2010PropOp53
 70
     1
102
RTVSPost2010Prop54
  1
strokes_ogs.tif
102
RTVSPost2010PropOp54
 70
     1
102
RTVSPost2010Prop55
280
     0
102
RTVSPost2010PropOp55
 70
     1
102
RTVSPost2010Prop56
140
1.0
102
RTVSPost2010PropOp56
 70
     1
102
RTVSPost2010Prop57
140
1.0
102
RTVSPost2010PropOp57
 70
     1
102
RTVSPropertyOp0
 70
     1
102
RTVSPropertyOp1
 70
     1
102
RTVSPropertyOp2
 70
     1
102
RTVSPropertyOp3
 70
     1
102
RTVSPropertyOp4
 70
     1
102
RTVSPropertyOp5
 70
     1
102
RTVSPropertyOp6
 70
     1
102
RTVSPropertyOp7
 70
     1
102
RTVSPropertyOp8
 70
     1
102
RTVSPropertyOp9
 70
     1
102
RTVSPropertyOp10
 70
     1
102
RTVSPropertyOp11
 70
     1
102
RTVSPropertyOp12
 70
     1
102
RTVSPropertyOp13
 70
     1
102
RTVSPropertyOp14
 70
     1
102
RTVSPropertyOp15
 70
     1
102
RTVSPropertyOp16
 70
     1
102
RTVSPropertyOp17
 70
     1
102
RTVSPropertyOp18
 70
     1
102
RTVSPropertyOp19
 70
     1
102
RTVSPropertyOp20
 70
     1
102
RTVSPropertyOp21
 70
     1
102
RTVSPropertyOp22
 70
     1
102
RTVSPropertyOp23
 70
     1
102
RTVSPropertyOp24
 70
     1
102
RTVSPropertyOp25
 70
     1
102
RTVSPropertyOp26
 70
     1
102
RTVSPropertyOp27
 70
     1
102
RTVSPropertyOp28
 70
     1
102
RTVSPropertyOp29
 70
     1
102
RTVSPropertyOp30
 70
     1
102
RTVSPropertyOp31
 70
     1
102
RTVSPropertyOp32
 70
     1
102
RTVSPropertyOp33
 70
     1
102
RTVSPropertyOp34
 70
     1
102
RTVSPropertyOp35
 70
     1
102
RTVSPropertyOp36
 70
     1
102
RTVSPropertyOp37
 70
     1
102
RTVSPropertyOp38
 70
     1
102
RTVSPropertyOp39
 70
     1
102
RTVSPropertyOp40
 70
     1
102
RTVSPropertyOp41
 70
     1
102
RTVSPropertyOp42
 70
     1
102
RTVSPropertyOp43
 70
     1
102
RTVSPropertyOp44
 70
     1
102
RTVSPropertyOp45
 70
     1
102
RTVSPropertyOp46
 70
     1
102
RTVSPropertyOp47
 70
     1
102
RTVSPropertyOp48
 70
     1
102
RTVSPropertyOp49
 70
     1
102
RTVSPropertyOp50
 70
     1
102
RTVSPropertyOp51
 70
     0
102
RTVSPropertyOp52
 70
     0
102
RTVSPropertyOp53
 70
     1
102
RTVSPropertyOp54
 70
     1
102
RTVSPropertyOp55
 70
     1
102
RTVSPropertyOp56
 70
     1
102
RTVSPropertyOp57
 70
     1
102
RTVSPropertyOp58
 70
     1
102
RTVSPropertyOp59
 70
     1
102
RTVSPropertyOp60
 70
     1
102
RTVSPropertyOp61
 70
     1
102
RTVSPropertyOp62
 70
     1
  0
XRECORD
  5
62F8
102
{ACAD_REACTORS
330
62F7
102
}
330
62F7
100
AcDbXrecord
280
     1
102
RTVSPost2010Prop28
280
     0
102
RTVSPost2010PropOp28
 70
     1
102
RTVSPost2010Prop29
280
     1
102
RTVSPost2010PropOp29
 70
     1
102
RTVSPost2010Prop30
280
     1
102
RTVSPost2010PropOp30
 70
     1
102
RTVSPost2010Prop31
280
     0
102
RTVSPost2010PropOp31
 70
     1
102
RTVSPost2010Prop32
280
     0
102
RTVSPost2010PropOp32
 70
     1
102
RTVSPost2010Prop33
280
     0
102
RTVSPost2010PropOp33
 70
     1
102
RTVSPost2010Prop34
280
     0
102
RTVSPost2010PropOp34
 70
     1
102
RTVSPost2010Prop35
280
     0
102
RTVSPost2010PropOp35
 70
     1
102
RTVSPost2010Prop36
280
     0
102
RTVSPost2010PropOp36
 70
     1
102
RTVSPost2010Prop37
 90
       50
102
RTVSPost2010PropOp37
 70
     0
102
RTVSPost2010Prop38
140
0.0
102
RTVSPost2010PropOp38
 70
     0
102
RTVSPost2010Prop39
140
1.0
102
RTVSPost2010PropOp39
 70
     0
102
RTVSPost2010Prop40
 90
        0
102
RTVSPost2010PropOp40
 70
     0
102
RTVSPost2010Prop41ColorIndex
 90
       18
102
RTVSPost2010Prop41ColorRGB
 90
        0
102
RTVSPost2010PropOp41
 70
     0
102
RTVSPost2010Prop42
 90
       50
102
RTVSPost2010PropOp42
 70
     0
102
RTVSPost2010Prop43
 90
        3
102
RTVSPost2010PropOp43
 70
     0
102
RTVSPost2010Prop44ColorIndex
 90
        5
102
RTVSPost2010Prop44ColorRGB
 90
      255
102
RTVSPost2010PropOp44
 70
     0
102
RTVSPost2010Prop45
280
     0
102
RTVSPost2010PropOp45
 70
     1
102
RTVSPost2010Prop46
 90
       50
102
RTVSPost2010PropOp46
 70
     0
102
RTVSPost2010Prop47
 90
       50
102
RTVSPost2010PropOp47
 70
     0
102
RTVSPost2010Prop48
 90
       50
102
RTVSPost2010PropOp48
 70
     0
102
RTVSPost2010Prop49
280
     0
102
RTVSPost2010PropOp49
 70
     1
102
RTVSPost2010Prop50
 90
       50
102
RTVSPost2010PropOp50
 70
     0
102
RTVSPost2010Prop51ColorIndex
 90
      256
102
RTVSPost2010Prop51ColorRGB
 90
-16777216
102
RTVSPost2010PropOp51
 70
     0
102
RTVSPost2010Prop52
140
1.0
102
RTVSPost2010PropOp52
 70
     0
102
RTVSPost2010Prop53
 90
        2
102
RTVSPost2010PropOp53
 70
     0
102
RTVSPost2010Prop54
  1
strokes_ogs.tif
102
RTVSPost2010PropOp54
 70
     0
102
RTVSPost2010Prop55
280
     0
102
RTVSPost2010PropOp55
 70
     1
102
RTVSPost2010Prop56
140
1.0
102
RTVSPost2010PropOp56
 70
     0
102
RTVSPost2010Prop57
140
1.0
102
RTVSPost2010PropOp57
 70
     0
102
RTVSPropertyOp0
 70
     0
102
RTVSPropertyOp1
 70
     0
102
RTVSPropertyOp2
 70
     0
102
RTVSPropertyOp3
 70
     0
102
RTVSPropertyOp4
 70
     0
102
RTVSPropertyOp5
 70
     0
102
RTVSPropertyOp6
 70
     0
102
RTVSPropertyOp7
 70
     0
102
RTVSPropertyOp8
 70
     0
102
RTVSPropertyOp9
 70
     0
102
RTVSPropertyOp10
 70
     0
102
RTVSPropertyOp11
 70
     0
102
RTVSPropertyOp12
 70
     0
102
RTVSPropertyOp13
 70
     0
102
RTVSPropertyOp14
 70
     2
102
RTVSPropertyOp15
 70
     0
102
RTVSPropertyOp16
 70
     0
102
RTVSPropertyOp17
 70
     0
102
RTVSPropertyOp18
 70
     0
102
RTVSPropertyOp19
 70
     0
102
RTVSPropertyOp20
 70
     0
102
RTVSPropertyOp21
 70
     0
102
RTVSPropertyOp22
 70
     0
102
RTVSPropertyOp23
 70
     0
102
RTVSPropertyOp24
 70
     0
102
RTVSPropertyOp25
 70
     0
102
RTVSPropertyOp26
 70
     0
102
RTVSPropertyOp27
 70
     0
102
RTVSPropertyOp28
 70
     1
102
RTVSPropertyOp29
 70
     1
102
RTVSPropertyOp30
 70
     1
102
RTVSPropertyOp31
 70
     1
102
RTVSPropertyOp32
 70
     1
102
RTVSPropertyOp33
 70
     1
102
RTVSPropertyOp34
 70
     1
102
RTVSPropertyOp35
 70
     1
102
RTVSPropertyOp36
 70
     1
102
RTVSPropertyOp37
 70
     0
102
RTVSPropertyOp38
 70
     0
102
RTVSPropertyOp39
 70
     0
102
RTVSPropertyOp40
 70
     0
102
RTVSPropertyOp41
 70
     0
102
RTVSPropertyOp42
 70
     0
102
RTVSPropertyOp43
 70
     0
102
RTVSPropertyOp44
 70
     0
102
RTVSPropertyOp45
 70
     1
102
RTVSPropertyOp46
 70
     0
102
RTVSPropertyOp47
 70
     0
102
RTVSPropertyOp48
 70
     0
102
RTVSPropertyOp49
 70
     1
102
RTVSPropertyOp50
 70
     0
102
RTVSPropertyOp51
 70
     0
102
RTVSPropertyOp52
 70
     0
102
RTVSPropertyOp53
 70
     0
102
RTVSPropertyOp54
 70
     0
102
RTVSPropertyOp55
 70
     1
102
RTVSPropertyOp56
 70
     0
102
RTVSPropertyOp57
 70
     0
102
RTVSPropertyOp58
 70
     0
102
RTVSPropertyOp59
 70
     0
102
RTVSPropertyOp60
 70
     0
102
RTVSPropertyOp61
 70
     0
102
RTVSPropertyOp62
 70
     0
  0
XRECORD
  5
62DE
102
{ACAD_REACTORS
330
62DD
102
}
330
62DD
100
AcDbXrecord
280
     1
102
RTVSPost2010Prop28
280
     0
102
RTVSPost2010PropOp28
 70
     1
102
RTVSPost2010Prop29
280
     1
102
RTVSPost2010PropOp29
 70
     1
102
RTVSPost2010Prop30
280
     1
102
RTVSPost2010PropOp30
 70
     1
102
RTVSPost2010Prop31
280
     0
102
RTVSPost2010PropOp31
 70
     1
102
RTVSPost2010Prop32
280
     0
102
RTVSPost2010PropOp32
 70
     1
102
RTVSPost2010Prop33
280
     0
102
RTVSPost2010PropOp33
 70
     1
102
RTVSPost2010Prop34
280
     0
102
RTVSPost2010PropOp34
 70
     1
102
RTVSPost2010Prop35
280
     0
102
RTVSPost2010PropOp35
 70
     1
102
RTVSPost2010Prop36
280
     0
102
RTVSPost2010PropOp36
 70
     1
102
RTVSPost2010Prop37
 90
       50
102
RTVSPost2010PropOp37
 70
     1
102
RTVSPost2010Prop38
140
0.0
102
RTVSPost2010PropOp38
 70
     1
102
RTVSPost2010Prop39
140
1.0
102
RTVSPost2010PropOp39
 70
     1
102
RTVSPost2010Prop40
 90
        0
102
RTVSPost2010PropOp40
 70
     1
102
RTVSPost2010Prop41ColorIndex
 90
       18
102
RTVSPost2010Prop41ColorRGB
 90
        0
102
RTVSPost2010PropOp41
 70
     1
102
RTVSPost2010Prop42
 90
       50
102
RTVSPost2010PropOp42
 70
     1
102
RTVSPost2010Prop43
 90
        3
102
RTVSPost2010PropOp43
 70
     1
102
RTVSPost2010Prop44ColorIndex
 90
        5
102
RTVSPost2010Prop44ColorRGB
 90
      255
102
RTVSPost2010PropOp44
 70
     1
102
RTVSPost2010Prop45
280
     0
102
RTVSPost2010PropOp45
 70
     1
102
RTVSPost2010Prop46
 90
       50
102
RTVSPost2010PropOp46
 70
     1
102
RTVSPost2010Prop47
 90
       50
102
RTVSPost2010PropOp47
 70
     1
102
RTVSPost2010Prop48
 90
       50
102
RTVSPost2010PropOp48
 70
     1
102
RTVSPost2010Prop49
280
     0
102
RTVSPost2010PropOp49
 70
     1
102
RTVSPost2010Prop50
 90
       50
102
RTVSPost2010PropOp50
 70
     1
102
RTVSPost2010Prop51ColorIndex
 90
      256
102
RTVSPost2010Prop51ColorRGB
 90
-16777216
102
RTVSPost2010PropOp51
 70
     0
102
RTVSPost2010Prop52
140
1.0
102
RTVSPost2010PropOp52
 70
     0
102
RTVSPost2010Prop53
 90
        2
102
RTVSPost2010PropOp53
 70
     1
102
RTVSPost2010Prop54
  1
strokes_ogs.tif
102
RTVSPost2010PropOp54
 70
     1
102
RTVSPost2010Prop55
280
     0
102
RTVSPost2010PropOp55
 70
     1
102
RTVSPost2010Prop56
140
1.0
102
RTVSPost2010PropOp56
 70
     1
102
RTVSPost2010Prop57
140
1.0
102
RTVSPost2010PropOp57
 70
     1
102
RTVSPropertyOp0
 70
     1
102
RTVSPropertyOp1
 70
     1
102
RTVSPropertyOp2
 70
     1
102
RTVSPropertyOp3
 70
     1
102
RTVSPropertyOp4
 70
     1
102
RTVSPropertyOp5
 70
     1
102
RTVSPropertyOp6
 70
     1
102
RTVSPropertyOp7
 70
     1
102
RTVSPropertyOp8
 70
     1
102
RTVSPropertyOp9
 70
     1
102
RTVSPropertyOp10
 70
     1
102
RTVSPropertyOp11
 70
     1
102
RTVSPropertyOp12
 70
     1
102
RTVSPropertyOp13
 70
     1
102
RTVSPropertyOp14
 70
     1
102
RTVSPropertyOp15
 70
     1
102
RTVSPropertyOp16
 70
     1
102
RTVSPropertyOp17
 70
     1
102
RTVSPropertyOp18
 70
     1
102
RTVSPropertyOp19
 70
     1
102
RTVSPropertyOp20
 70
     1
102
RTVSPropertyOp21
 70
     1
102
RTVSPropertyOp22
 70
     1
102
RTVSPropertyOp23
 70
     1
102
RTVSPropertyOp24
 70
     1
102
RTVSPropertyOp25
 70
     1
102
RTVSPropertyOp26
 70
     1
102
RTVSPropertyOp27
 70
     1
102
RTVSPropertyOp28
 70
     1
102
RTVSPropertyOp29
 70
     1
102
RTVSPropertyOp30
 70
     1
102
RTVSPropertyOp31
 70
     1
102
RTVSPropertyOp32
 70
     1
102
RTVSPropertyOp33
 70
     1
102
RTVSPropertyOp34
 70
     1
102
RTVSPropertyOp35
 70
     1
102
RTVSPropertyOp36
 70
     1
102
RTVSPropertyOp37
 70
     1
102
RTVSPropertyOp38
 70
     1
102
RTVSPropertyOp39
 70
     1
102
RTVSPropertyOp40
 70
     1
102
RTVSPropertyOp41
 70
     1
102
RTVSPropertyOp42
 70
     1
102
RTVSPropertyOp43
 70
     1
102
RTVSPropertyOp44
 70
     1
102
RTVSPropertyOp45
 70
     1
102
RTVSPropertyOp46
 70
     1
102
RTVSPropertyOp47
 70
     1
102
RTVSPropertyOp48
 70
     1
102
RTVSPropertyOp49
 70
     1
102
RTVSPropertyOp50
 70
     1
102
RTVSPropertyOp51
 70
     0
102
RTVSPropertyOp52
 70
     0
102
RTVSPropertyOp53
 70
     1
102
RTVSPropertyOp54
 70
     1
102
RTVSPropertyOp55
 70
     1
102
RTVSPropertyOp56
 70
     1
102
RTVSPropertyOp57
 70
     1
102
RTVSPropertyOp58
 70
     1
102
RTVSPropertyOp59
 70
     1
102
RTVSPropertyOp60
 70
     1
102
RTVSPropertyOp61
 70
     1
102
RTVSPropertyOp62
 70
     1
  0
XRECORD
  5
62F4
102
{ACAD_REACTORS
330
62F3
102
}
330
62F3
100
AcDbXrecord
280
     1
102
RTVSPost2010Prop28
280
     0
102
RTVSPost2010PropOp28
 70
     1
102
RTVSPost2010Prop29
280
     1
102
RTVSPost2010PropOp29
 70
     1
102
RTVSPost2010Prop30
280
     1
102
RTVSPost2010PropOp30
 70
     1
102
RTVSPost2010Prop31
280
     0
102
RTVSPost2010PropOp31
 70
     1
102
RTVSPost2010Prop32
280
     0
102
RTVSPost2010PropOp32
 70
     1
102
RTVSPost2010Prop33
280
     0
102
RTVSPost2010PropOp33
 70
     1
102
RTVSPost2010Prop34
280
     0
102
RTVSPost2010PropOp34
 70
     1
102
RTVSPost2010Prop35
280
     0
102
RTVSPost2010PropOp35
 70
     1
102
RTVSPost2010Prop36
280
     0
102
RTVSPost2010PropOp36
 70
     1
102
RTVSPost2010Prop37
 90
       50
102
RTVSPost2010PropOp37
 70
     1
102
RTVSPost2010Prop38
140
0.0
102
RTVSPost2010PropOp38
 70
     1
102
RTVSPost2010Prop39
140
1.0
102
RTVSPost2010PropOp39
 70
     1
102
RTVSPost2010Prop40
 90
        0
102
RTVSPost2010PropOp40
 70
     1
102
RTVSPost2010Prop41ColorIndex
 90
       18
102
RTVSPost2010Prop41ColorRGB
 90
        0
102
RTVSPost2010PropOp41
 70
     1
102
RTVSPost2010Prop42
 90
       50
102
RTVSPost2010PropOp42
 70
     1
102
RTVSPost2010Prop43
 90
        3
102
RTVSPost2010PropOp43
 70
     1
102
RTVSPost2010Prop44ColorIndex
 90
        5
102
RTVSPost2010Prop44ColorRGB
 90
      255
102
RTVSPost2010PropOp44
 70
     1
102
RTVSPost2010Prop45
280
     0
102
RTVSPost2010PropOp45
 70
     1
102
RTVSPost2010Prop46
 90
       50
102
RTVSPost2010PropOp46
 70
     1
102
RTVSPost2010Prop47
 90
       50
102
RTVSPost2010PropOp47
 70
     1
102
RTVSPost2010Prop48
 90
       50
102
RTVSPost2010PropOp48
 70
     1
102
RTVSPost2010Prop49
280
     0
102
RTVSPost2010PropOp49
 70
     1
102
RTVSPost2010Prop50
 90
       50
102
RTVSPost2010PropOp50
 70
     1
102
RTVSPost2010Prop51ColorIndex
 90
      256
102
RTVSPost2010Prop51ColorRGB
 90
-16777216
102
RTVSPost2010PropOp51
 70
     0
102
RTVSPost2010Prop52
140
1.0
102
RTVSPost2010PropOp52
 70
     0
102
RTVSPost2010Prop53
 90
        2
102
RTVSPost2010PropOp53
 70
     1
102
RTVSPost2010Prop54
  1
strokes_ogs.tif
102
RTVSPost2010PropOp54
 70
     1
102
RTVSPost2010Prop55
280
     0
102
RTVSPost2010PropOp55
 70
     1
102
RTVSPost2010Prop56
140
1.0
102
RTVSPost2010PropOp56
 70
     1
102
RTVSPost2010Prop57
140
1.0
102
RTVSPost2010PropOp57
 70
     1
102
RTVSPropertyOp0
 70
     1
102
RTVSPropertyOp1
 70
     1
102
RTVSPropertyOp2
 70
     1
102
RTVSPropertyOp3
 70
     1
102
RTVSPropertyOp4
 70
     1
102
RTVSPropertyOp5
 70
     1
102
RTVSPropertyOp6
 70
     1
102
RTVSPropertyOp7
 70
     1
102
RTVSPropertyOp8
 70
     1
102
RTVSPropertyOp9
 70
     1
102
RTVSPropertyOp10
 70
     1
102
RTVSPropertyOp11
 70
     1
102
RTVSPropertyOp12
 70
     1
102
RTVSPropertyOp13
 70
     1
102
RTVSPropertyOp14
 70
     1
102
RTVSPropertyOp15
 70
     1
102
RTVSPropertyOp16
 70
     1
102
RTVSPropertyOp17
 70
     1
102
RTVSPropertyOp18
 70
     1
102
RTVSPropertyOp19
 70
     1
102
RTVSPropertyOp20
 70
     1
102
RTVSPropertyOp21
 70
     1
102
RTVSPropertyOp22
 70
     1
102
RTVSPropertyOp23
 70
     1
102
RTVSPropertyOp24
 70
     1
102
RTVSPropertyOp25
 70
     1
102
RTVSPropertyOp26
 70
     1
102
RTVSPropertyOp27
 70
     1
102
RTVSPropertyOp28
 70
     1
102
RTVSPropertyOp29
 70
     1
102
RTVSPropertyOp30
 70
     1
102
RTVSPropertyOp31
 70
     1
102
RTVSPropertyOp32
 70
     1
102
RTVSPropertyOp33
 70
     1
102
RTVSPropertyOp34
 70
     1
102
RTVSPropertyOp35
 70
     1
102
RTVSPropertyOp36
 70
     1
102
RTVSPropertyOp37
 70
     1
102
RTVSPropertyOp38
 70
     1
102
RTVSPropertyOp39
 70
     1
102
RTVSPropertyOp40
 70
     1
102
RTVSPropertyOp41
 70
     1
102
RTVSPropertyOp42
 70
     1
102
RTVSPropertyOp43
 70
     1
102
RTVSPropertyOp44
 70
     1
102
RTVSPropertyOp45
 70
     1
102
RTVSPropertyOp46
 70
     1
102
RTVSPropertyOp47
 70
     1
102
RTVSPropertyOp48
 70
     1
102
RTVSPropertyOp49
 70
     1
102
RTVSPropertyOp50
 70
     1
102
RTVSPropertyOp51
 70
     0
102
RTVSPropertyOp52
 70
     0
102
RTVSPropertyOp53
 70
     1
102
RTVSPropertyOp54
 70
     1
102
RTVSPropertyOp55
 70
     1
102
RTVSPropertyOp56
 70
     1
102
RTVSPropertyOp57
 70
     1
102
RTVSPropertyOp58
 70
     1
102
RTVSPropertyOp59
 70
     1
102
RTVSPropertyOp60
 70
     1
102
RTVSPropertyOp61
 70
     1
102
RTVSPropertyOp62
 70
     1
  0
XRECORD
  5
62F2
102
{ACAD_REACTORS
330
62F1
102
}
330
62F1
100
AcDbXrecord
280
     1
102
RTVSPost2010Prop28
280
     0
102
RTVSPost2010PropOp28
 70
     1
102
RTVSPost2010Prop29
280
     1
102
RTVSPost2010PropOp29
 70
     1
102
RTVSPost2010Prop30
280
     1
102
RTVSPost2010PropOp30
 70
     1
102
RTVSPost2010Prop31
280
     0
102
RTVSPost2010PropOp31
 70
     1
102
RTVSPost2010Prop32
280
     0
102
RTVSPost2010PropOp32
 70
     1
102
RTVSPost2010Prop33
280
     0
102
RTVSPost2010PropOp33
 70
     1
102
RTVSPost2010Prop34
280
     0
102
RTVSPost2010PropOp34
 70
     1
102
RTVSPost2010Prop35
280
     0
102
RTVSPost2010PropOp35
 70
     1
102
RTVSPost2010Prop36
280
     0
102
RTVSPost2010PropOp36
 70
     1
102
RTVSPost2010Prop37
 90
       50
102
RTVSPost2010PropOp37
 70
     1
102
RTVSPost2010Prop38
140
0.0
102
RTVSPost2010PropOp38
 70
     1
102
RTVSPost2010Prop39
140
1.0
102
RTVSPost2010PropOp39
 70
     1
102
RTVSPost2010Prop40
 90
        0
102
RTVSPost2010PropOp40
 70
     1
102
RTVSPost2010Prop41ColorIndex
 90
       18
102
RTVSPost2010Prop41ColorRGB
 90
        0
102
RTVSPost2010PropOp41
 70
     1
102
RTVSPost2010Prop42
 90
       50
102
RTVSPost2010PropOp42
 70
     1
102
RTVSPost2010Prop43
 90
        3
102
RTVSPost2010PropOp43
 70
     1
102
RTVSPost2010Prop44ColorIndex
 90
        5
102
RTVSPost2010Prop44ColorRGB
 90
      255
102
RTVSPost2010PropOp44
 70
     1
102
RTVSPost2010Prop45
280
     0
102
RTVSPost2010PropOp45
 70
     1
102
RTVSPost2010Prop46
 90
       50
102
RTVSPost2010PropOp46
 70
     1
102
RTVSPost2010Prop47
 90
       50
102
RTVSPost2010PropOp47
 70
     1
102
RTVSPost2010Prop48
 90
       50
102
RTVSPost2010PropOp48
 70
     1
102
RTVSPost2010Prop49
280
     0
102
RTVSPost2010PropOp49
 70
     1
102
RTVSPost2010Prop50
 90
       50
102
RTVSPost2010PropOp50
 70
     1
102
RTVSPost2010Prop51ColorIndex
 90
      256
102
RTVSPost2010Prop51ColorRGB
 90
-16777216
102
RTVSPost2010PropOp51
 70
     0
102
RTVSPost2010Prop52
140
1.0
102
RTVSPost2010PropOp52
 70
     0
102
RTVSPost2010Prop53
 90
        2
102
RTVSPost2010PropOp53
 70
     1
102
RTVSPost2010Prop54
  1
strokes_ogs.tif
102
RTVSPost2010PropOp54
 70
     1
102
RTVSPost2010Prop55
280
     0
102
RTVSPost2010PropOp55
 70
     1
102
RTVSPost2010Prop56
140
1.0
102
RTVSPost2010PropOp56
 70
     1
102
RTVSPost2010Prop57
140
1.0
102
RTVSPost2010PropOp57
 70
     1
102
RTVSPropertyOp0
 70
     1
102
RTVSPropertyOp1
 70
     1
102
RTVSPropertyOp2
 70
     1
102
RTVSPropertyOp3
 70
     1
102
RTVSPropertyOp4
 70
     1
102
RTVSPropertyOp5
 70
     1
102
RTVSPropertyOp6
 70
     1
102
RTVSPropertyOp7
 70
     1
102
RTVSPropertyOp8
 70
     1
102
RTVSPropertyOp9
 70
     1
102
RTVSPropertyOp10
 70
     1
102
RTVSPropertyOp11
 70
     1
102
RTVSPropertyOp12
 70
     1
102
RTVSPropertyOp13
 70
     1
102
RTVSPropertyOp14
 70
     1
102
RTVSPropertyOp15
 70
     1
102
RTVSPropertyOp16
 70
     1
102
RTVSPropertyOp17
 70
     1
102
RTVSPropertyOp18
 70
     1
102
RTVSPropertyOp19
 70
     1
102
RTVSPropertyOp20
 70
     1
102
RTVSPropertyOp21
 70
     1
102
RTVSPropertyOp22
 70
     1
102
RTVSPropertyOp23
 70
     1
102
RTVSPropertyOp24
 70
     1
102
RTVSPropertyOp25
 70
     1
102
RTVSPropertyOp26
 70
     1
102
RTVSPropertyOp27
 70
     1
102
RTVSPropertyOp28
 70
     1
102
RTVSPropertyOp29
 70
     1
102
RTVSPropertyOp30
 70
     1
102
RTVSPropertyOp31
 70
     1
102
RTVSPropertyOp32
 70
     1
102
RTVSPropertyOp33
 70
     1
102
RTVSPropertyOp34
 70
     1
102
RTVSPropertyOp35
 70
     1
102
RTVSPropertyOp36
 70
     1
102
RTVSPropertyOp37
 70
     1
102
RTVSPropertyOp38
 70
     1
102
RTVSPropertyOp39
 70
     1
102
RTVSPropertyOp40
 70
     1
102
RTVSPropertyOp41
 70
     1
102
RTVSPropertyOp42
 70
     1
102
RTVSPropertyOp43
 70
     1
102
RTVSPropertyOp44
 70
     1
102
RTVSPropertyOp45
 70
     1
102
RTVSPropertyOp46
 70
     1
102
RTVSPropertyOp47
 70
     1
102
RTVSPropertyOp48
 70
     1
102
RTVSPropertyOp49
 70
     1
102
RTVSPropertyOp50
 70
     1
102
RTVSPropertyOp51
 70
     0
102
RTVSPropertyOp52
 70
     0
102
RTVSPropertyOp53
 70
     1
102
RTVSPropertyOp54
 70
     1
102
RTVSPropertyOp55
 70
     1
102
RTVSPropertyOp56
 70
     1
102
RTVSPropertyOp57
 70
     1
102
RTVSPropertyOp58
 70
     1
102
RTVSPropertyOp59
 70
     1
102
RTVSPropertyOp60
 70
     1
102
RTVSPropertyOp61
 70
     1
102
RTVSPropertyOp62
 70
     1
  0
XRECORD
  5
62EC
102
{ACAD_REACTORS
330
62EB
102
}
330
62EB
100
AcDbXrecord
280
     1
102
RTVSPost2010Prop28
280
     0
102
RTVSPost2010PropOp28
 70
     1
102
RTVSPost2010Prop29
280
     1
102
RTVSPost2010PropOp29
 70
     1
102
RTVSPost2010Prop30
280
     1
102
RTVSPost2010PropOp30
 70
     1
102
RTVSPost2010Prop31
280
     0
102
RTVSPost2010PropOp31
 70
     1
102
RTVSPost2010Prop32
280
     0
102
RTVSPost2010PropOp32
 70
     1
102
RTVSPost2010Prop33
280
     0
102
RTVSPost2010PropOp33
 70
     1
102
RTVSPost2010Prop34
280
     0
102
RTVSPost2010PropOp34
 70
     1
102
RTVSPost2010Prop35
280
     0
102
RTVSPost2010PropOp35
 70
     1
102
RTVSPost2010Prop36
280
     0
102
RTVSPost2010PropOp36
 70
     1
102
RTVSPost2010Prop37
 90
       50
102
RTVSPost2010PropOp37
 70
     1
102
RTVSPost2010Prop38
140
0.0
102
RTVSPost2010PropOp38
 70
     1
102
RTVSPost2010Prop39
140
1.0
102
RTVSPost2010PropOp39
 70
     1
102
RTVSPost2010Prop40
 90
        0
102
RTVSPost2010PropOp40
 70
     1
102
RTVSPost2010Prop41ColorIndex
 90
       18
102
RTVSPost2010Prop41ColorRGB
 90
        0
102
RTVSPost2010PropOp41
 70
     1
102
RTVSPost2010Prop42
 90
       50
102
RTVSPost2010PropOp42
 70
     1
102
RTVSPost2010Prop43
 90
        3
102
RTVSPost2010PropOp43
 70
     1
102
RTVSPost2010Prop44ColorIndex
 90
        5
102
RTVSPost2010Prop44ColorRGB
 90
      255
102
RTVSPost2010PropOp44
 70
     1
102
RTVSPost2010Prop45
280
     0
102
RTVSPost2010PropOp45
 70
     1
102
RTVSPost2010Prop46
 90
       50
102
RTVSPost2010PropOp46
 70
     1
102
RTVSPost2010Prop47
 90
       50
102
RTVSPost2010PropOp47
 70
     1
102
RTVSPost2010Prop48
 90
       50
102
RTVSPost2010PropOp48
 70
     1
102
RTVSPost2010Prop49
280
     0
102
RTVSPost2010PropOp49
 70
     1
102
RTVSPost2010Prop50
 90
       50
102
RTVSPost2010PropOp50
 70
     1
102
RTVSPost2010Prop51ColorIndex
 90
      256
102
RTVSPost2010Prop51ColorRGB
 90
-16777216
102
RTVSPost2010PropOp51
 70
     0
102
RTVSPost2010Prop52
140
1.0
102
RTVSPost2010PropOp52
 70
     0
102
RTVSPost2010Prop53
 90
        2
102
RTVSPost2010PropOp53
 70
     1
102
RTVSPost2010Prop54
  1
strokes_ogs.tif
102
RTVSPost2010PropOp54
 70
     1
102
RTVSPost2010Prop55
280
     0
102
RTVSPost2010PropOp55
 70
     1
102
RTVSPost2010Prop56
140
1.0
102
RTVSPost2010PropOp56
 70
     1
102
RTVSPost2010Prop57
140
1.0
102
RTVSPost2010PropOp57
 70
     1
102
RTVSPropertyOp0
 70
     1
102
RTVSPropertyOp1
 70
     1
102
RTVSPropertyOp2
 70
     1
102
RTVSPropertyOp3
 70
     1
102
RTVSPropertyOp4
 70
     1
102
RTVSPropertyOp5
 70
     1
102
RTVSPropertyOp6
 70
     1
102
RTVSPropertyOp7
 70
     1
102
RTVSPropertyOp8
 70
     1
102
RTVSPropertyOp9
 70
     1
102
RTVSPropertyOp10
 70
     1
102
RTVSPropertyOp11
 70
     1
102
RTVSPropertyOp12
 70
     1
102
RTVSPropertyOp13
 70
     1
102
RTVSPropertyOp14
 70
     1
102
RTVSPropertyOp15
 70
     1
102
RTVSPropertyOp16
 70
     1
102
RTVSPropertyOp17
 70
     1
102
RTVSPropertyOp18
 70
     1
102
RTVSPropertyOp19
 70
     1
102
RTVSPropertyOp20
 70
     1
102
RTVSPropertyOp21
 70
     1
102
RTVSPropertyOp22
 70
     1
102
RTVSPropertyOp23
 70
     1
102
RTVSPropertyOp24
 70
     1
102
RTVSPropertyOp25
 70
     1
102
RTVSPropertyOp26
 70
     1
102
RTVSPropertyOp27
 70
     1
102
RTVSPropertyOp28
 70
     1
102
RTVSPropertyOp29
 70
     1
102
RTVSPropertyOp30
 70
     1
102
RTVSPropertyOp31
 70
     1
102
RTVSPropertyOp32
 70
     1
102
RTVSPropertyOp33
 70
     1
102
RTVSPropertyOp34
 70
     1
102
RTVSPropertyOp35
 70
     1
102
RTVSPropertyOp36
 70
     1
102
RTVSPropertyOp37
 70
     1
102
RTVSPropertyOp38
 70
     1
102
RTVSPropertyOp39
 70
     1
102
RTVSPropertyOp40
 70
     1
102
RTVSPropertyOp41
 70
     1
102
RTVSPropertyOp42
 70
     1
102
RTVSPropertyOp43
 70
     1
102
RTVSPropertyOp44
 70
     1
102
RTVSPropertyOp45
 70
     1
102
RTVSPropertyOp46
 70
     1
102
RTVSPropertyOp47
 70
     1
102
RTVSPropertyOp48
 70
     1
102
RTVSPropertyOp49
 70
     1
102
RTVSPropertyOp50
 70
     1
102
RTVSPropertyOp51
 70
     0
102
RTVSPropertyOp52
 70
     0
102
RTVSPropertyOp53
 70
     1
102
RTVSPropertyOp54
 70
     1
102
RTVSPropertyOp55
 70
     1
102
RTVSPropertyOp56
 70
     1
102
RTVSPropertyOp57
 70
     1
102
RTVSPropertyOp58
 70
     1
102
RTVSPropertyOp59
 70
     1
102
RTVSPropertyOp60
 70
     1
102
RTVSPropertyOp61
 70
     1
102
RTVSPropertyOp62
 70
     1
  0
XRECORD
  5
62EE
102
{ACAD_REACTORS
330
62ED
102
}
330
62ED
100
AcDbXrecord
280
     1
102
RTVSPost2010Prop28
280
     0
102
RTVSPost2010PropOp28
 70
     1
102
RTVSPost2010Prop29
280
     1
102
RTVSPost2010PropOp29
 70
     1
102
RTVSPost2010Prop30
280
     1
102
RTVSPost2010PropOp30
 70
     1
102
RTVSPost2010Prop31
280
     0
102
RTVSPost2010PropOp31
 70
     1
102
RTVSPost2010Prop32
280
     0
102
RTVSPost2010PropOp32
 70
     1
102
RTVSPost2010Prop33
280
     0
102
RTVSPost2010PropOp33
 70
     1
102
RTVSPost2010Prop34
280
     0
102
RTVSPost2010PropOp34
 70
     1
102
RTVSPost2010Prop35
280
     0
102
RTVSPost2010PropOp35
 70
     1
102
RTVSPost2010Prop36
280
     0
102
RTVSPost2010PropOp36
 70
     1
102
RTVSPost2010Prop37
 90
       50
102
RTVSPost2010PropOp37
 70
     1
102
RTVSPost2010Prop38
140
0.0
102
RTVSPost2010PropOp38
 70
     1
102
RTVSPost2010Prop39
140
1.0
102
RTVSPost2010PropOp39
 70
     1
102
RTVSPost2010Prop40
 90
        0
102
RTVSPost2010PropOp40
 70
     1
102
RTVSPost2010Prop41ColorIndex
 90
       18
102
RTVSPost2010Prop41ColorRGB
 90
        0
102
RTVSPost2010PropOp41
 70
     1
102
RTVSPost2010Prop42
 90
       50
102
RTVSPost2010PropOp42
 70
     1
102
RTVSPost2010Prop43
 90
        3
102
RTVSPost2010PropOp43
 70
     1
102
RTVSPost2010Prop44ColorIndex
 90
        5
102
RTVSPost2010Prop44ColorRGB
 90
      255
102
RTVSPost2010PropOp44
 70
     1
102
RTVSPost2010Prop45
280
     0
102
RTVSPost2010PropOp45
 70
     1
102
RTVSPost2010Prop46
 90
       50
102
RTVSPost2010PropOp46
 70
     1
102
RTVSPost2010Prop47
 90
       50
102
RTVSPost2010PropOp47
 70
     1
102
RTVSPost2010Prop48
 90
       50
102
RTVSPost2010PropOp48
 70
     1
102
RTVSPost2010Prop49
280
     0
102
RTVSPost2010PropOp49
 70
     1
102
RTVSPost2010Prop50
 90
       50
102
RTVSPost2010PropOp50
 70
     1
102
RTVSPost2010Prop51ColorIndex
 90
      256
102
RTVSPost2010Prop51ColorRGB
 90
-16777216
102
RTVSPost2010PropOp51
 70
     0
102
RTVSPost2010Prop52
140
1.0
102
RTVSPost2010PropOp52
 70
     0
102
RTVSPost2010Prop53
 90
        2
102
RTVSPost2010PropOp53
 70
     1
102
RTVSPost2010Prop54
  1
strokes_ogs.tif
102
RTVSPost2010PropOp54
 70
     1
102
RTVSPost2010Prop55
280
     0
102
RTVSPost2010PropOp55
 70
     1
102
RTVSPost2010Prop56
140
1.0
102
RTVSPost2010PropOp56
 70
     1
102
RTVSPost2010Prop57
140
1.0
102
RTVSPost2010PropOp57
 70
     1
102
RTVSPropertyOp0
 70
     1
102
RTVSPropertyOp1
 70
     1
102
RTVSPropertyOp2
 70
     1
102
RTVSPropertyOp3
 70
     1
102
RTVSPropertyOp4
 70
     1
102
RTVSPropertyOp5
 70
     1
102
RTVSPropertyOp6
 70
     1
102
RTVSPropertyOp7
 70
     1
102
RTVSPropertyOp8
 70
     1
102
RTVSPropertyOp9
 70
     1
102
RTVSPropertyOp10
 70
     1
102
RTVSPropertyOp11
 70
     1
102
RTVSPropertyOp12
 70
     1
102
RTVSPropertyOp13
 70
     1
102
RTVSPropertyOp14
 70
     1
102
RTVSPropertyOp15
 70
     1
102
RTVSPropertyOp16
 70
     1
102
RTVSPropertyOp17
 70
     1
102
RTVSPropertyOp18
 70
     1
102
RTVSPropertyOp19
 70
     1
102
RTVSPropertyOp20
 70
     1
102
RTVSPropertyOp21
 70
     1
102
RTVSPropertyOp22
 70
     1
102
RTVSPropertyOp23
 70
     1
102
RTVSPropertyOp24
 70
     1
102
RTVSPropertyOp25
 70
     1
102
RTVSPropertyOp26
 70
     1
102
RTVSPropertyOp27
 70
     1
102
RTVSPropertyOp28
 70
     1
102
RTVSPropertyOp29
 70
     1
102
RTVSPropertyOp30
 70
     1
102
RTVSPropertyOp31
 70
     1
102
RTVSPropertyOp32
 70
     1
102
RTVSPropertyOp33
 70
     1
102
RTVSPropertyOp34
 70
     1
102
RTVSPropertyOp35
 70
     1
102
RTVSPropertyOp36
 70
     1
102
RTVSPropertyOp37
 70
     1
102
RTVSPropertyOp38
 70
     1
102
RTVSPropertyOp39
 70
     1
102
RTVSPropertyOp40
 70
     1
102
RTVSPropertyOp41
 70
     1
102
RTVSPropertyOp42
 70
     1
102
RTVSPropertyOp43
 70
     1
102
RTVSPropertyOp44
 70
     1
102
RTVSPropertyOp45
 70
     1
102
RTVSPropertyOp46
 70
     1
102
RTVSPropertyOp47
 70
     1
102
RTVSPropertyOp48
 70
     1
102
RTVSPropertyOp49
 70
     1
102
RTVSPropertyOp50
 70
     1
102
RTVSPropertyOp51
 70
     0
102
RTVSPropertyOp52
 70
     0
102
RTVSPropertyOp53
 70
     1
102
RTVSPropertyOp54
 70
     1
102
RTVSPropertyOp55
 70
     1
102
RTVSPropertyOp56
 70
     1
102
RTVSPropertyOp57
 70
     1
102
RTVSPropertyOp58
 70
     1
102
RTVSPropertyOp59
 70
     1
102
RTVSPropertyOp60
 70
     1
102
RTVSPropertyOp61
 70
     1
102
RTVSPropertyOp62
 70
     1
  0
XRECORD
  5
62E4
102
{ACAD_REACTORS
330
62E3
102
}
330
62E3
100
AcDbXrecord
280
     1
102
RTVSPost2010Prop28
280
     0
102
RTVSPost2010PropOp28
 70
     1
102
RTVSPost2010Prop29
280
     1
102
RTVSPost2010PropOp29
 70
     1
102
RTVSPost2010Prop30
280
     1
102
RTVSPost2010PropOp30
 70
     1
102
RTVSPost2010Prop31
280
     0
102
RTVSPost2010PropOp31
 70
     1
102
RTVSPost2010Prop32
280
     0
102
RTVSPost2010PropOp32
 70
     1
102
RTVSPost2010Prop33
280
     0
102
RTVSPost2010PropOp33
 70
     1
102
RTVSPost2010Prop34
280
     0
102
RTVSPost2010PropOp34
 70
     1
102
RTVSPost2010Prop35
280
     0
102
RTVSPost2010PropOp35
 70
     1
102
RTVSPost2010Prop36
280
     0
102
RTVSPost2010PropOp36
 70
     1
102
RTVSPost2010Prop37
 90
       50
102
RTVSPost2010PropOp37
 70
     1
102
RTVSPost2010Prop38
140
0.0
102
RTVSPost2010PropOp38
 70
     1
102
RTVSPost2010Prop39
140
1.0
102
RTVSPost2010PropOp39
 70
     1
102
RTVSPost2010Prop40
 90
        0
102
RTVSPost2010PropOp40
 70
     1
102
RTVSPost2010Prop41ColorIndex
 90
       18
102
RTVSPost2010Prop41ColorRGB
 90
        0
102
RTVSPost2010PropOp41
 70
     1
102
RTVSPost2010Prop42
 90
       50
102
RTVSPost2010PropOp42
 70
     1
102
RTVSPost2010Prop43
 90
        3
102
RTVSPost2010PropOp43
 70
     1
102
RTVSPost2010Prop44ColorIndex
 90
        5
102
RTVSPost2010Prop44ColorRGB
 90
      255
102
RTVSPost2010PropOp44
 70
     1
102
RTVSPost2010Prop45
280
     0
102
RTVSPost2010PropOp45
 70
     1
102
RTVSPost2010Prop46
 90
       50
102
RTVSPost2010PropOp46
 70
     1
102
RTVSPost2010Prop47
 90
       50
102
RTVSPost2010PropOp47
 70
     1
102
RTVSPost2010Prop48
 90
       50
102
RTVSPost2010PropOp48
 70
     1
102
RTVSPost2010Prop49
280
     0
102
RTVSPost2010PropOp49
 70
     1
102
RTVSPost2010Prop50
 90
       50
102
RTVSPost2010PropOp50
 70
     1
102
RTVSPost2010Prop51ColorIndex
 90
      256
102
RTVSPost2010Prop51ColorRGB
 90
-16777216
102
RTVSPost2010PropOp51
 70
     0
102
RTVSPost2010Prop52
140
1.0
102
RTVSPost2010PropOp52
 70
     0
102
RTVSPost2010Prop53
 90
        2
102
RTVSPost2010PropOp53
 70
     1
102
RTVSPost2010Prop54
  1
strokes_ogs.tif
102
RTVSPost2010PropOp54
 70
     1
102
RTVSPost2010Prop55
280
     0
102
RTVSPost2010PropOp55
 70
     1
102
RTVSPost2010Prop56
140
1.0
102
RTVSPost2010PropOp56
 70
     1
102
RTVSPost2010Prop57
140
1.0
102
RTVSPost2010PropOp57
 70
     1
102
RTVSPropertyOp0
 70
     1
102
RTVSPropertyOp1
 70
     1
102
RTVSPropertyOp2
 70
     1
102
RTVSPropertyOp3
 70
     1
102
RTVSPropertyOp4
 70
     1
102
RTVSPropertyOp5
 70
     1
102
RTVSPropertyOp6
 70
     1
102
RTVSPropertyOp7
 70
     1
102
RTVSPropertyOp8
 70
     1
102
RTVSPropertyOp9
 70
     1
102
RTVSPropertyOp10
 70
     1
102
RTVSPropertyOp11
 70
     1
102
RTVSPropertyOp12
 70
     1
102
RTVSPropertyOp13
 70
     1
102
RTVSPropertyOp14
 70
     1
102
RTVSPropertyOp15
 70
     1
102
RTVSPropertyOp16
 70
     1
102
RTVSPropertyOp17
 70
     1
102
RTVSPropertyOp18
 70
     1
102
RTVSPropertyOp19
 70
     1
102
RTVSPropertyOp20
 70
     1
102
RTVSPropertyOp21
 70
     1
102
RTVSPropertyOp22
 70
     1
102
RTVSPropertyOp23
 70
     1
102
RTVSPropertyOp24
 70
     1
102
RTVSPropertyOp25
 70
     1
102
RTVSPropertyOp26
 70
     1
102
RTVSPropertyOp27
 70
     1
102
RTVSPropertyOp28
 70
     1
102
RTVSPropertyOp29
 70
     1
102
RTVSPropertyOp30
 70
     1
102
RTVSPropertyOp31
 70
     1
102
RTVSPropertyOp32
 70
     1
102
RTVSPropertyOp33
 70
     1
102
RTVSPropertyOp34
 70
     1
102
RTVSPropertyOp35
 70
     1
102
RTVSPropertyOp36
 70
     1
102
RTVSPropertyOp37
 70
     1
102
RTVSPropertyOp38
 70
     1
102
RTVSPropertyOp39
 70
     1
102
RTVSPropertyOp40
 70
     1
102
RTVSPropertyOp41
 70
     1
102
RTVSPropertyOp42
 70
     1
102
RTVSPropertyOp43
 70
     1
102
RTVSPropertyOp44
 70
     1
102
RTVSPropertyOp45
 70
     1
102
RTVSPropertyOp46
 70
     1
102
RTVSPropertyOp47
 70
     1
102
RTVSPropertyOp48
 70
     1
102
RTVSPropertyOp49
 70
     1
102
RTVSPropertyOp50
 70
     1
102
RTVSPropertyOp51
 70
     0
102
RTVSPropertyOp52
 70
     0
102
RTVSPropertyOp53
 70
     1
102
RTVSPropertyOp54
 70
     1
102
RTVSPropertyOp55
 70
     1
102
RTVSPropertyOp56
 70
     1
102
RTVSPropertyOp57
 70
     1
102
RTVSPropertyOp58
 70
     1
102
RTVSPropertyOp59
 70
     1
102
RTVSPropertyOp60
 70
     1
102
RTVSPropertyOp61
 70
     1
102
RTVSPropertyOp62
 70
     1
  0
XRECORD
  5
62D8
102
{ACAD_REACTORS
330
62D7
102
}
330
62D7
100
AcDbXrecord
280
     1
102
RTVSPost2010Prop28
280
     0
102
RTVSPost2010PropOp28
 70
     1
102
RTVSPost2010Prop29
280
     1
102
RTVSPost2010PropOp29
 70
     1
102
RTVSPost2010Prop30
280
     1
102
RTVSPost2010PropOp30
 70
     1
102
RTVSPost2010Prop31
280
     0
102
RTVSPost2010PropOp31
 70
     1
102
RTVSPost2010Prop32
280
     0
102
RTVSPost2010PropOp32
 70
     1
102
RTVSPost2010Prop33
280
     0
102
RTVSPost2010PropOp33
 70
     1
102
RTVSPost2010Prop34
280
     0
102
RTVSPost2010PropOp34
 70
     1
102
RTVSPost2010Prop35
280
     0
102
RTVSPost2010PropOp35
 70
     1
102
RTVSPost2010Prop36
280
     0
102
RTVSPost2010PropOp36
 70
     1
102
RTVSPost2010Prop37
 90
       50
102
RTVSPost2010PropOp37
 70
     1
102
RTVSPost2010Prop38
140
0.0
102
RTVSPost2010PropOp38
 70
     1
102
RTVSPost2010Prop39
140
1.0
102
RTVSPost2010PropOp39
 70
     1
102
RTVSPost2010Prop40
 90
        0
102
RTVSPost2010PropOp40
 70
     1
102
RTVSPost2010Prop41ColorIndex
 90
       18
102
RTVSPost2010Prop41ColorRGB
 90
        0
102
RTVSPost2010PropOp41
 70
     1
102
RTVSPost2010Prop42
 90
       50
102
RTVSPost2010PropOp42
 70
     1
102
RTVSPost2010Prop43
 90
        3
102
RTVSPost2010PropOp43
 70
     1
102
RTVSPost2010Prop44ColorIndex
 90
        5
102
RTVSPost2010Prop44ColorRGB
 90
      255
102
RTVSPost2010PropOp44
 70
     1
102
RTVSPost2010Prop45
280
     0
102
RTVSPost2010PropOp45
 70
     1
102
RTVSPost2010Prop46
 90
       50
102
RTVSPost2010PropOp46
 70
     1
102
RTVSPost2010Prop47
 90
       50
102
RTVSPost2010PropOp47
 70
     1
102
RTVSPost2010Prop48
 90
       50
102
RTVSPost2010PropOp48
 70
     1
102
RTVSPost2010Prop49
280
     0
102
RTVSPost2010PropOp49
 70
     1
102
RTVSPost2010Prop50
 90
       50
102
RTVSPost2010PropOp50
 70
     1
102
RTVSPost2010Prop51ColorIndex
 90
      256
102
RTVSPost2010Prop51ColorRGB
 90
-16777216
102
RTVSPost2010PropOp51
 70
     0
102
RTVSPost2010Prop52
140
1.0
102
RTVSPost2010PropOp52
 70
     0
102
RTVSPost2010Prop53
 90
        2
102
RTVSPost2010PropOp53
 70
     1
102
RTVSPost2010Prop54
  1
strokes_ogs.tif
102
RTVSPost2010PropOp54
 70
     1
102
RTVSPost2010Prop55
280
     0
102
RTVSPost2010PropOp55
 70
     1
102
RTVSPost2010Prop56
140
1.0
102
RTVSPost2010PropOp56
 70
     1
102
RTVSPost2010Prop57
140
1.0
102
RTVSPost2010PropOp57
 70
     1
102
RTVSPropertyOp0
 70
     1
102
RTVSPropertyOp1
 70
     1
102
RTVSPropertyOp2
 70
     1
102
RTVSPropertyOp3
 70
     1
102
RTVSPropertyOp4
 70
     1
102
RTVSPropertyOp5
 70
     1
102
RTVSPropertyOp6
 70
     1
102
RTVSPropertyOp7
 70
     1
102
RTVSPropertyOp8
 70
     1
102
RTVSPropertyOp9
 70
     1
102
RTVSPropertyOp10
 70
     1
102
RTVSPropertyOp11
 70
     1
102
RTVSPropertyOp12
 70
     1
102
RTVSPropertyOp13
 70
     1
102
RTVSPropertyOp14
 70
     1
102
RTVSPropertyOp15
 70
     1
102
RTVSPropertyOp16
 70
     1
102
RTVSPropertyOp17
 70
     1
102
RTVSPropertyOp18
 70
     1
102
RTVSPropertyOp19
 70
     1
102
RTVSPropertyOp20
 70
     1
102
RTVSPropertyOp21
 70
     1
102
RTVSPropertyOp22
 70
     1
102
RTVSPropertyOp23
 70
     1
102
RTVSPropertyOp24
 70
     1
102
RTVSPropertyOp25
 70
     1
102
RTVSPropertyOp26
 70
     1
102
RTVSPropertyOp27
 70
     1
102
RTVSPropertyOp28
 70
     1
102
RTVSPropertyOp29
 70
     1
102
RTVSPropertyOp30
 70
     1
102
RTVSPropertyOp31
 70
     1
102
RTVSPropertyOp32
 70
     1
102
RTVSPropertyOp33
 70
     1
102
RTVSPropertyOp34
 70
     1
102
RTVSPropertyOp35
 70
     1
102
RTVSPropertyOp36
 70
     1
102
RTVSPropertyOp37
 70
     1
102
RTVSPropertyOp38
 70
     1
102
RTVSPropertyOp39
 70
     1
102
RTVSPropertyOp40
 70
     1
102
RTVSPropertyOp41
 70
     1
102
RTVSPropertyOp42
 70
     1
102
RTVSPropertyOp43
 70
     1
102
RTVSPropertyOp44
 70
     1
102
RTVSPropertyOp45
 70
     1
102
RTVSPropertyOp46
 70
     1
102
RTVSPropertyOp47
 70
     1
102
RTVSPropertyOp48
 70
     1
102
RTVSPropertyOp49
 70
     1
102
RTVSPropertyOp50
 70
     1
102
RTVSPropertyOp51
 70
     0
102
RTVSPropertyOp52
 70
     0
102
RTVSPropertyOp53
 70
     1
102
RTVSPropertyOp54
 70
     1
102
RTVSPropertyOp55
 70
     1
102
RTVSPropertyOp56
 70
     1
102
RTVSPropertyOp57
 70
     1
102
RTVSPropertyOp58
 70
     1
102
RTVSPropertyOp59
 70
     1
102
RTVSPropertyOp60
 70
     1
102
RTVSPropertyOp61
 70
     1
102
RTVSPropertyOp62
 70
     1
  0
XRECORD
  5
62F0
102
{ACAD_REACTORS
330
62EF
102
}
330
62EF
100
AcDbXrecord
280
     1
102
RTVSPost2010Prop28
280
     0
102
RTVSPost2010PropOp28
 70
     1
102
RTVSPost2010Prop29
280
     1
102
RTVSPost2010PropOp29
 70
     1
102
RTVSPost2010Prop30
280
     1
102
RTVSPost2010PropOp30
 70
     1
102
RTVSPost2010Prop31
280
     0
102
RTVSPost2010PropOp31
 70
     1
102
RTVSPost2010Prop32
280
     0
102
RTVSPost2010PropOp32
 70
     1
102
RTVSPost2010Prop33
280
     0
102
RTVSPost2010PropOp33
 70
     1
102
RTVSPost2010Prop34
280
     0
102
RTVSPost2010PropOp34
 70
     1
102
RTVSPost2010Prop35
280
     0
102
RTVSPost2010PropOp35
 70
     1
102
RTVSPost2010Prop36
280
     0
102
RTVSPost2010PropOp36
 70
     1
102
RTVSPost2010Prop37
 90
       50
102
RTVSPost2010PropOp37
 70
     1
102
RTVSPost2010Prop38
140
0.0
102
RTVSPost2010PropOp38
 70
     1
102
RTVSPost2010Prop39
140
1.0
102
RTVSPost2010PropOp39
 70
     1
102
RTVSPost2010Prop40
 90
        0
102
RTVSPost2010PropOp40
 70
     1
102
RTVSPost2010Prop41ColorIndex
 90
       18
102
RTVSPost2010Prop41ColorRGB
 90
        0
102
RTVSPost2010PropOp41
 70
     1
102
RTVSPost2010Prop42
 90
       50
102
RTVSPost2010PropOp42
 70
     1
102
RTVSPost2010Prop43
 90
        3
102
RTVSPost2010PropOp43
 70
     1
102
RTVSPost2010Prop44ColorIndex
 90
        5
102
RTVSPost2010Prop44ColorRGB
 90
      255
102
RTVSPost2010PropOp44
 70
     1
102
RTVSPost2010Prop45
280
     0
102
RTVSPost2010PropOp45
 70
     1
102
RTVSPost2010Prop46
 90
       50
102
RTVSPost2010PropOp46
 70
     1
102
RTVSPost2010Prop47
 90
       50
102
RTVSPost2010PropOp47
 70
     1
102
RTVSPost2010Prop48
 90
       50
102
RTVSPost2010PropOp48
 70
     1
102
RTVSPost2010Prop49
280
     0
102
RTVSPost2010PropOp49
 70
     1
102
RTVSPost2010Prop50
 90
       50
102
RTVSPost2010PropOp50
 70
     1
102
RTVSPost2010Prop51ColorIndex
 90
      256
102
RTVSPost2010Prop51ColorRGB
 90
-16777216
102
RTVSPost2010PropOp51
 70
     0
102
RTVSPost2010Prop52
140
1.0
102
RTVSPost2010PropOp52
 70
     0
102
RTVSPost2010Prop53
 90
        2
102
RTVSPost2010PropOp53
 70
     1
102
RTVSPost2010Prop54
  1
strokes_ogs.tif
102
RTVSPost2010PropOp54
 70
     1
102
RTVSPost2010Prop55
280
     0
102
RTVSPost2010PropOp55
 70
     1
102
RTVSPost2010Prop56
140
1.0
102
RTVSPost2010PropOp56
 70
     1
102
RTVSPost2010Prop57
140
1.0
102
RTVSPost2010PropOp57
 70
     1
102
RTVSPropertyOp0
 70
     1
102
RTVSPropertyOp1
 70
     1
102
RTVSPropertyOp2
 70
     1
102
RTVSPropertyOp3
 70
     1
102
RTVSPropertyOp4
 70
     1
102
RTVSPropertyOp5
 70
     1
102
RTVSPropertyOp6
 70
     1
102
RTVSPropertyOp7
 70
     1
102
RTVSPropertyOp8
 70
     1
102
RTVSPropertyOp9
 70
     1
102
RTVSPropertyOp10
 70
     1
102
RTVSPropertyOp11
 70
     1
102
RTVSPropertyOp12
 70
     1
102
RTVSPropertyOp13
 70
     1
102
RTVSPropertyOp14
 70
     1
102
RTVSPropertyOp15
 70
     1
102
RTVSPropertyOp16
 70
     1
102
RTVSPropertyOp17
 70
     1
102
RTVSPropertyOp18
 70
     1
102
RTVSPropertyOp19
 70
     1
102
RTVSPropertyOp20
 70
     1
102
RTVSPropertyOp21
 70
     1
102
RTVSPropertyOp22
 70
     1
102
RTVSPropertyOp23
 70
     1
102
RTVSPropertyOp24
 70
     1
102
RTVSPropertyOp25
 70
     1
102
RTVSPropertyOp26
 70
     1
102
RTVSPropertyOp27
 70
     1
102
RTVSPropertyOp28
 70
     1
102
RTVSPropertyOp29
 70
     1
102
RTVSPropertyOp30
 70
     1
102
RTVSPropertyOp31
 70
     1
102
RTVSPropertyOp32
 70
     1
102
RTVSPropertyOp33
 70
     1
102
RTVSPropertyOp34
 70
     1
102
RTVSPropertyOp35
 70
     1
102
RTVSPropertyOp36
 70
     1
102
RTVSPropertyOp37
 70
     1
102
RTVSPropertyOp38
 70
     1
102
RTVSPropertyOp39
 70
     1
102
RTVSPropertyOp40
 70
     1
102
RTVSPropertyOp41
 70
     1
102
RTVSPropertyOp42
 70
     1
102
RTVSPropertyOp43
 70
     1
102
RTVSPropertyOp44
 70
     1
102
RTVSPropertyOp45
 70
     1
102
RTVSPropertyOp46
 70
     1
102
RTVSPropertyOp47
 70
     1
102
RTVSPropertyOp48
 70
     1
102
RTVSPropertyOp49
 70
     1
102
RTVSPropertyOp50
 70
     1
102
RTVSPropertyOp51
 70
     0
102
RTVSPropertyOp52
 70
     0
102
RTVSPropertyOp53
 70
     1
102
RTVSPropertyOp54
 70
     1
102
RTVSPropertyOp55
 70
     1
102
RTVSPropertyOp56
 70
     1
102
RTVSPropertyOp57
 70
     1
102
RTVSPropertyOp58
 70
     1
102
RTVSPropertyOp59
 70
     1
102
RTVSPropertyOp60
 70
     1
102
RTVSPropertyOp61
 70
     1
102
RTVSPropertyOp62
 70
     1
  0
ENDSEC
  0
EOF
