  0
SECTION
  2
HEADER
  9
$ACADVER
  1
AC1015
  9
$ACADMAINTVER
 70
    20
  9
$DWGCODEPAGE
  3
ANSI_932
  9
$INSBASE
 10
0.0
 20
0.0
 30
0.0
  9
$EXTMIN
 10
80.0
 20
-0.000000000000453
 30
0.0
  9
$EXTMAX
 10
1880.0
 20
2808.0
 30
0.0
  9
$LIMMIN
 10
0.0
 20
0.0
  9
$LIMMAX
 10
2100.0
 20
2970.0
  9
$ORTHOMODE
 70
     1
  9
$REGENMODE
 70
     1
  9
$FILLMODE
 70
     1
  9
$QTEXTMODE
 70
     0
  9
$MIRRTEXT
 70
     0
  9
$LTSCALE
 40
2.5
  9
$ATTMODE
 70
     1
  9
$TEXTSIZE
 40
2.5
  9
$TRACEWID
 40
0.05
  9
$TEXTSTYLE
  7
STANDARD
  9
$CLAYER
  8
0
  9
$CELTYPE
  6
ByLayer
  9
$CECOLOR
 62
   256
  9
$CELTSCALE
 40
1.0
  9
$DISPSILH
 70
     0
  9
$DIMSCALE
 40
10.0
  9
$DIMASZ
 40
2.0
  9
$DIMEXO
 40
1.0
  9
$DIMDLI
 40
7.0
  9
$DIMRND
 40
0.0
  9
$DIMDLE
 40
0.0
  9
$DIMEXE
 40
1.8
  9
$DIMTP
 40
0.0
  9
$DIMTM
 40
0.000000001
  9
$DIMTXT
 40
3.0
  9
$DIMCEN
 40
1.0
  9
$DIMTSZ
 40
0.0
  9
$DIMTOL
 70
     0
  9
$DIMLIM
 70
     0
  9
$DIMTIH
 70
     0
  9
$DIMTOH
 70
     0
  9
$DIMSE1
 70
     0
  9
$DIMSE2
 70
     0
  9
$DIMTAD
 70
     3
  9
$DIMZIN
 70
     9
  9
$DIMBLK
  1
OPEN30
  9
$DIMASO
 70
     1
  9
$DIMSHO
 70
     1
  9
$DIMPOST
  1

  9
$DIMAPOST
  1
"
  9
$DIMALT
 70
     0
  9
$DIMALTD
 70
     2
  9
$DIMALTF
 40
0.0393701
  9
$DIMLFAC
 40
1.0
  9
$DIMTOFL
 70
     1
  9
$DIMTVP
 40
0.0
  9
$DIMTIX
 70
     0
  9
$DIMSOXD
 70
     0
  9
$DIMSAH
 70
     0
  9
$DIMBLK1
  1

  9
$DIMBLK2
  1

  9
$DIMSTYLE
  2
AM_JIS
  9
$DIMCLRD
 70
   256
  9
$DIMCLRE
 70
   256
  9
$DIMCLRT
 70
     4
  9
$DIMTFAC
 40
0.71
  9
$DIMGAP
 40
1.5
  9
$DIMJUST
 70
     0
  9
$DIMSD1
 70
     0
  9
$DIMSD2
 70
     0
  9
$DIMTOLJ
 70
     1
  9
$DIMTZIN
 70
     0
  9
$DIMALTZ
 70
     0
  9
$DIMALTTZ
 70
     0
  9
$DIMUPT
 70
     0
  9
$DIMDEC
 70
     4
  9
$DIMTDEC
 70
     4
  9
$DIMALTU
 70
     2
  9
$DIMALTTD
 70
     2
  9
$DIMTXSTY
  7
STANDARD
  9
$DIMAUNIT
 70
     0
  9
$DIMADEC
 70
     0
  9
$DIMALTRND
 40
0.0
  9
$DIMAZIN
 70
     0
  9
$DIMDSEP
 70
    46
  9
$DIMATFIT
 70
     3
  9
$DIMFRAC
 70
     0
  9
$DIMLDRBLK
  1
OPEN30
  9
$DIMLUNIT
 70
     2
  9
$DIMLWD
 70
    -2
  9
$DIMLWE
 70
    -2
  9
$DIMTMOVE
 70
     0
  9
$LUNITS
 70
     2
  9
$LUPREC
 70
     2
  9
$SKETCHINC
 40
0.1
  9
$FILLETRAD
 40
25.0
  9
$AUNITS
 70
     0
  9
$AUPREC
 70
     2
  9
$MENU
  1
amecex
  9
$ELEVATION
 40
0.0
  9
$PELEVATION
 40
0.0
  9
$THICKNESS
 40
0.0
  9
$LIMCHECK
 70
     0
  9
$CHAMFERA
 40
25.0
  9
$CHAMFERB
 40
25.0
  9
$CHAMFERC
 40
0.0
  9
$CHAMFERD
 40
0.0
  9
$SKPOLY
 70
     0
  9
$TDCREATE
 40
2452793.377199074
  9
$TDUCREATE
 40
2452793.002199074
  9
$TDUPDATE
 40
2460019.698333333
  9
$TDUUPDATE
 40
2460019.323333333
  9
$TDINDWG
 40
0.5645009606
  9
$TDUSRTIMER
 40
0.5645009606
  9
$USRTIMER
 70
     1
  9
$ANGBASE
 50
0.0
  9
$ANGDIR
 70
     0
  9
$PDMODE
 70
     0
  9
$PDSIZE
 40
0.0
  9
$PLINEWID
 40
0.0
  9
$SPLFRAME
 70
     0
  9
$SPLINETYPE
 70
     6
  9
$SPLINESEGS
 70
     8
  9
$HANDSEED
  5
52C6
  9
$SURFTAB1
 70
     6
  9
$SURFTAB2
 70
     6
  9
$SURFTYPE
 70
     6
  9
$SURFU
 70
     6
  9
$SURFV
 70
     6
  9
$UCSBASE
  2

  9
$UCSNAME
  2

  9
$UCSORG
 10
0.0
 20
0.0
 30
0.0
  9
$UCSXDIR
 10
1.0
 20
0.0
 30
0.0
  9
$UCSYDIR
 10
0.0
 20
1.0
 30
0.0
  9
$UCSORTHOREF
  2

  9
$UCSORTHOVIEW
 70
     0
  9
$UCSORGTOP
 10
0.0
 20
0.0
 30
0.0
  9
$UCSORGBOTTOM
 10
0.0
 20
0.0
 30
0.0
  9
$UCSORGLEFT
 10
0.0
 20
0.0
 30
0.0
  9
$UCSORGRIGHT
 10
0.0
 20
0.0
 30
0.0
  9
$UCSORGFRONT
 10
0.0
 20
0.0
 30
0.0
  9
$UCSORGBACK
 10
0.0
 20
0.0
 30
0.0
  9
$PUCSBASE
  2

  9
$PUCSNAME
  2

  9
$PUCSORG
 10
0.0
 20
0.0
 30
0.0
  9
$PUCSXDIR
 10
1.0
 20
0.0
 30
0.0
  9
$PUCSYDIR
 10
0.0
 20
1.0
 30
0.0
  9
$PUCSORTHOREF
  2

  9
$PUCSORTHOVIEW
 70
     0
  9
$PUCSORGTOP
 10
0.0
 20
0.0
 30
0.0
  9
$PUCSORGBOTTOM
 10
0.0
 20
0.0
 30
0.0
  9
$PUCSORGLEFT
 10
0.0
 20
0.0
 30
0.0
  9
$PUCSORGRIGHT
 10
0.0
 20
0.0
 30
0.0
  9
$PUCSORGFRONT
 10
0.0
 20
0.0
 30
0.0
  9
$PUCSORGBACK
 10
0.0
 20
0.0
 30
0.0
  9
$USERI1
 70
     0
  9
$USERI2
 70
     0
  9
$USERI3
 70
     0
  9
$USERI4
 70
     0
  9
$USERI5
 70
     0
  9
$USERR1
 40
30.0
  9
$USERR2
 40
0.0
  9
$USERR3
 40
0.0
  9
$USERR4
 40
0.0
  9
$USERR5
 40
0.0
  9
$WORLDVIEW
 70
     1
  9
$SHADEDGE
 70
     3
  9
$SHADEDIF
 70
    70
  9
$TILEMODE
 70
     1
  9
$MAXACTVP
 70
    16
  9
$PINSBASE
 10
0.0
 20
0.0
 30
0.0
  9
$PLIMCHECK
 70
     0
  9
$PEXTMIN
 10
1.000000000000000E+20
 20
1.000000000000000E+20
 30
1.000000000000000E+20
  9
$PEXTMAX
 10
-1.000000000000000E+20
 20
-1.000000000000000E+20
 30
-1.000000000000000E+20
  9
$PLIMMIN
 10
0.0
 20
0.0
  9
$PLIMMAX
 10
12.0
 20
9.0
  9
$UNITMODE
 70
     0
  9
$VISRETAIN
 70
     0
  9
$PLINEGEN
 70
     0
  9
$PSLTSCALE
 70
     0
  9
$TREEDEPTH
 70
  3020
  9
$CMLSTYLE
  2
Standard
  9
$CMLJUST
 70
     0
  9
$CMLSCALE
 40
1.0
  9
$PROXYGRAPHICS
 70
     1
  9
$MEASUREMENT
 70
     0
  9
$CELWEIGHT
370
    -1
  9
$ENDCAPS
280
     0
  9
$JOINSTYLE
280
     0
  9
$LWDISPLAY
290
     0
  9
$INSUNITS
 70
     0
  9
$HYPERLINKBASE
  1

  9
$STYLESHEET
  1

  9
$XEDIT
290
     1
  9
$CEPSNTYPE
380
     0
  9
$PSTYLEMODE
290
     1
  9
$FINGERPRINTGUID
  2
{6F4755F7-5836-8848-855E-4325C92C168A}
  9
$VERSIONGUID
  2
{853A9DB7-7F31-6F4F-AE28-43CCAD363C68}
  9
$EXTNAMES
290
     1
  9
$PSVPSCALE
 40
0.0
  9
$OLESTARTUP
290
     0
  0
ENDSEC
  0
SECTION
  2
CLASSES
  0
CLASS
  1
ACDBDICTIONARYWDFLT
  2
AcDbDictionaryWithDefault
  3
ObjectDBX Classes
 90
        0
280
     0
281
     0
  0
CLASS
  1
MATERIAL
  2
AcDbMaterial
  3
ObjectDBX Classes
 90
     1153
280
     0
281
     0
  0
CLASS
  1
VISUALSTYLE
  2
AcDbVisualStyle
  3
ObjectDBX Classes
 90
     4095
280
     0
281
     0
  0
CLASS
  1
SCALE
  2
AcDbScale
  3
ObjectDBX Classes
 90
     1153
280
     0
281
     0
  0
CLASS
  1
TABLESTYLE
  2
AcDbTableStyle
  3
ObjectDBX Classes
 90
     4095
280
     0
281
     0
  0
CLASS
  1
MLEADERSTYLE
  2
AcDbMLeaderStyle
  3
ACDB_MLEADERSTYLE_CLASS
 90
     4095
280
     0
281
     0
  0
CLASS
  1
ACDBSECTIONVIEWSTYLE
  2
AcDbSectionViewStyle
  3
ObjectDBX Classes
 90
     1025
280
     0
281
     0
  0
CLASS
  1
ACDBDETAILVIEWSTYLE
  2
AcDbDetailViewStyle
  3
ObjectDBX Classes
 90
     1025
280
     0
281
     0
  0
CLASS
  1
AMGSETTINGSOBJ
  2
AmgSettingsObj
  3
"AcadM|Product Description: AutoCAD Mechanical|Company: Autodesk, Inc."
 90
     1024
280
     0
281
     0
  0
CLASS
  1
ACME_DOCUMENT
  2
AcMeDbDoc
  3
AcMeServices
 90
     1024
280
     0
281
     0
  0
CLASS
  1
ACMESCOPE
  2
AcMeScope
  3
AcMeServices
 90
     1024
280
     0
281
     0
  0
CLASS
  1
ACMECOMMANDHISTORY
  2
AcMeCommandHistory
  3
AcMeServices
 90
     1024
280
     0
281
     0
  0
CLASS
  1
ACIMSYSVARMAN
  2
AcImSysVarManager
  3
AcMeServices
 90
     1024
280
     0
281
     0
  0
CLASS
  1
ACIMINTSYSVAR
  2
AcImIntSysVar
  3
AcMeServices
 90
     1024
280
     0
281
     0
  0
CLASS
  1
ACMESTATEMGR
  2
AcMeStateMgr
  3
AcMeServices
 90
     1024
280
     0
281
     0
  0
CLASS
  1
ACDBENTITYCACHE
  2
AcMeEntityCache
  3
AcMeServices
 90
     1024
280
     0
281
     0
  0
CLASS
  1
ACGREFMASTER
  2
AcGrefMaster
  3
AcAttribServices
 90
     1024
280
     0
281
     0
  0
CLASS
  1
ACME_DATABASE
  2
AcMeDbDatabase
  3
AcMeServices
 90
     1024
280
     0
281
     0
  0
CLASS
  1
ACRFINSADJUSTERMGR
  2
AcRfInsAdjusterMgr
  3
AcMeServices
 90
     1024
280
     0
281
     0
  0
CLASS
  1
ACGREFACADMASTER
  2
AcGrefacadMaster
  3
AcGrefServices
 90
     1024
280
     0
281
     0
  0
CLASS
  1
AMIMASTER
  2
AmiMaster
  3
AmiServices
 90
     1024
280
     0
281
     0
  0
CLASS
  1
AMDTMENUSTATEMGR
  2
AmdtMenuStateMgr
  3
McadcomServices
 90
     1024
280
     0
281
     0
  0
CLASS
  1
AMDTMCOMMENUSTATE
  2
AmdtMcomMenuState
  3
McadcomServices
 90
     1024
280
     0
281
     0
  0
CLASS
  1
MAPIAMMOUDLE
  2
MApiAmModule
  3
MApiAmServices
 90
     1024
280
     0
281
     0
  0
CLASS
  1
ACIMSTRSYSVAR
  2
AcImStrSysVar
  3
AcMeServices
 90
     1024
280
     0
281
     0
  0
CLASS
  1
AMDTAMMENUSTATE
  2
AmdtAmMenuState
  3
DesignerAssemblies_arx
 90
     1024
280
     0
281
     0
  0
CLASS
  1
ACAMPROJECT
  2
AcAmProject
  3
DesignerAssemblies
 90
     1024
280
     0
281
     0
  0
CLASS
  1
ACAMGRCOMPDEF
  2
AcAmGrCompDef
  3
DesignerAssemblies
 90
     1024
280
     0
281
     0
  0
CLASS
  1
ACAMCOMPDEF
  2
AcAmCompDef
  3
DesignerAssemblies
 90
     1024
280
     0
281
     0
  0
CLASS
  1
ACAMCOMPDEFMGR
  2
AcAmCompDefMgr
  3
DesignerAssemblies
 90
     1024
280
     0
281
     0
  0
CLASS
  1
AMCONTEXTMGR
  2
AcAmContextMgr
  3
DesignerAssemblies
 90
     1024
280
     0
281
     0
  0
CLASS
  1
ACAMCONTEXTMODELER
  2
AcAmContextModeler
  3
DesignerAssemblies
 90
     1024
280
     0
281
     0
  0
CLASS
  1
ACMDATADICTIONARY
  2
AcmDataDictionary
  3
"AcmSymBB|Product Description: AutoCAD Mechanical|Company: Autodesk, Inc."
 90
     1024
280
     0
281
     0
  0
CLASS
  1
ACAMGRCOMPDEFSET
  2
AcAmGrCompDefSet
  3
DesignerAssemblies
 90
     1024
280
     0
281
     0
  0
CLASS
  1
AMDTBROWSERDBTAB
  2
AmdtBrowserDbTab
  3
McadcomServices
 90
     1024
280
     0
281
     0
  0
CLASS
  1
CBROWSERAPPOBJECT
  2
CBrowserAppObject
  3
McadcomServices
 90
     1024
280
     0
281
     0
  0
CLASS
  1
DM_PLACEHOLDER
  2
AcDmSelsetPlaceholder
  3
McadcomServices
 90
     1024
280
     0
281
     0
  0
CLASS
  1
ACMSTANDARDANSI
  2
AcmStandardANSI
  3
"Amdt_StdImp|Product Description: AutoCAD Mechanical|Company: Autodesk, Inc."
 90
     1024
280
     0
281
     0
  0
CLASS
  1
ACMSURFSTANDARDANSI
  2
AcmSurfTextStdANSI
  3
"Amdt_StdImp|Product Description: AutoCAD Mechanical|Company: Autodesk, Inc."
 90
     1024
280
     0
281
     0
  0
CLASS
  1
ACMFCFSTANDARDANSI
  2
AcmFCFStdANSI
  3
"Amdt_StdImp|Product Description: AutoCAD Mechanical|Company: Autodesk, Inc."
 90
     1024
280
     0
281
     0
  0
CLASS
  1
ACMWELDSTANDARDANSI
  2
AcmWeldingStdANSI
  3
"Amdt_StdImp|Product Description: AutoCAD Mechanical|Company: Autodesk, Inc."
 90
     1024
280
     0
281
     0
  0
CLASS
  1
ACMIDSTANDARDANSI
  2
AcmIdStdANSI
  3
"Amdt_StdImp|Product Description: AutoCAD Mechanical|Company: Autodesk, Inc."
 90
     1024
280
     0
281
     0
  0
CLASS
  1
ACMDATUMSTANDARDANSI
  2
AcmDatumStdANSI
  3
"Amdt_StdImp|Product Description: AutoCAD Mechanical|Company: Autodesk, Inc."
 90
     1024
280
     0
281
     0
  0
CLASS
  1
ACMBOMSTANDARDANSI
  2
AcmBOMStdANSI
  3
"Amdt_StdImp|Product Description: AutoCAD Mechanical|Company: Autodesk, Inc."
 90
     1024
280
     0
281
     0
  0
CLASS
  1
ACMDETAILSTANDARDANSI
  2
AmdtDetailSymStdANSI
  3
"Amdt_StdImp|Product Description: AutoCAD Mechanical|Company: Autodesk, Inc."
 90
     1024
280
     0
281
     0
  0
CLASS
  1
ACMSECTIONSTANDARDANSI
  2
AmdtSectionSymStdANSI
  3
"Amdt_StdImp|Product Description: AutoCAD Mechanical|Company: Autodesk, Inc."
 90
     1024
280
     0
281
     0
  0
CLASS
  1
ACMCENTERLINESTANDARDANSI
  2
AmdtCenterLineStdANSI
  3
"Amdt_StdImp|Product Description: AutoCAD Mechanical|Company: Autodesk, Inc."
 90
     1024
280
     0
281
     0
  0
CLASS
  1
ACMTHREADLINESTANDARDANSI
  2
AmdtThreadLineStdANSI
  3
"Amdt_StdImp|Product Description: AutoCAD Mechanical|Company: Autodesk, Inc."
 90
     1024
280
     0
281
     0
  0
CLASS
  1
ACMNOTESTANDARDANSI
  2
AmdtNoteStdANSI
  3
"Amdt_StdImp|Product Description: AutoCAD Mechanical|Company: Autodesk, Inc."
 90
     1024
280
     0
281
     0
  0
CLASS
  1
ACMTAPERSTANDARDANSI
  2
AcmTaperStdANSI
  3
"Amdt_StdImp|Product Description: AutoCAD Mechanical|Company: Autodesk, Inc."
 90
     1024
280
     0
281
     0
  0
CLASS
  1
ACMANOOTATIONVIEWSTANDARDANSI
  2
AmdtAnViewStdANSI
  3
"Amdt_StdImp|Product Description: AutoCAD Mechanical|Company: Autodesk, Inc."
 90
     1024
280
     0
281
     0
  0
CLASS
  1
ACAMGLAYSTD
  2
AcAmgLayStd
  3
"AmgLay|Product Description: AutoCAD Mechanical|Company: Autodesk, Inc."
 90
     1024
280
     0
281
     0
  0
CLASS
  1
ACAMGTITLESTD
  2
AcAmgTitleStd
  3
"AmgTitle|Product Description: AutoCAD Mechanical|Company: Autodesk, Inc."
 90
     1024
280
     0
281
     0
  0
CLASS
  1
ACAMGDIMSTD
  2
AcAmgDimStd
  3
"AmgDim|Product Description: AutoCAD Mechanical|Company: Autodesk, Inc."
 90
     1024
280
     0
281
     0
  0
CLASS
  1
ACAMGHOLECHARTSTDANSI
  2
AcAmgHoleChartStdANSI
  3
"AmgDim" "Product Description: AutoCAD Mechanical|Company: Autodesk, Inc."
 90
     1024
280
     0
281
     0
  0
CLASS
  1
AMGOBJPROPCFG
  2
AmgObjPropCfg
  3
"AmgLay|Product Description: AutoCAD Mechanical|Company: Autodesk, Inc."
 90
     1024
280
     0
281
     0
  0
CLASS
  1
ACMSECTIONSTANDARDCUSTOM
  2
AmdtSectionSymStdCustom
  3
"Amdt_StdImp|Product Description: AutoCAD Mechanical|Company: Autodesk, Inc."
 90
     1024
280
     0
281
     0
  0
CLASS
  1
ACMDETAILTANDARDCUSTOM
  2
AmdtDetailSymStdCustom
  3
"Amdt_StdImp|Product Description: AutoCAD Mechanical|Company: Autodesk, Inc."
 90
     1024
280
     0
281
     0
  0
CLASS
  1
FIELD
  2
AcDbField
  3
ObjectDBX Classes
 90
     1152
280
     0
281
     0
  0
CLASS
  1
FIELDLIST
  2
AcDbFieldList
  3
ObjectDBX Classes
 90
     1152
280
     0
281
     0
  0
CLASS
  1
AMDTNOTETEMPLATEDB
  2
AmdtNoteTemplateDB
  3
"AcmSymBB" "Product Description: AutoCAD Mechanical|Company: Autodesk, Inc."
 90
     1024
280
     0
281
     0
  0
CLASS
  1
ACAMGFILTERDAT
  2
AcAmgFilterDat
  3
"AcadM|Product Description: AutoCAD Mechanical|Company: Autodesk, Inc."
 90
    33792
280
     0
281
     0
  0
CLASS
  1
SORTENTSTABLE
  2
AcDbSortentsTable
  3
ObjectDBX Classes
 90
        0
280
     0
281
     0
  0
CLASS
  1
DICTIONARYVAR
  2
AcDbDictionaryVar
  3
ObjectDBX Classes
 90
        0
280
     0
281
     0
  0
CLASS
  1
CELLSTYLEMAP
  2
AcDbCellStyleMap
  3
ObjectDBX Classes
 90
     1152
280
     0
281
     0
  0
CLASS
  1
ACDBPLACEHOLDER
  2
AcDbPlaceHolder
  3
ObjectDBX Classes
 90
        0
280
     0
281
     0
  0
CLASS
  1
LAYOUT
  2
AcDbLayout
  3
ObjectDBX Classes
 90
        0
280
     0
281
     0
  0
ENDSEC
  0
SECTION
  2
TABLES
  0
TABLE
  2
VPORT
  5
5015
330
0
100
AcDbSymbolTable
 70
     1
  0
VPORT
  5
5080
330
5015
100
AcDbSymbolTableRecord
100
AcDbViewportTableRecord
  2
*ACTIVE
 70
     0
 10
0.0
 20
0.0
 11
1.0
 21
1.0
 12
1633.296175951292
 22
473.2899418954048
 13
0.0
 23
0.0
 14
25.0
 24
25.0
 15
100.0
 25
100.0
 16
0.0
 26
0.0
 36
1.0
 17
0.0
 27
0.0
 37
0.0
 40
1475.89853308497
 41
2.068387096774193
 42
50.0
 43
0.0
 44
0.0
 50
0.0
 51
0.0
 71
     0
 72
   100
 73
     1
 74
     1
 75
     0
 76
     0
 77
     0
 78
     0
281
     0
 65
     0
110
0.0
120
0.0
130
0.0
111
1.0
121
0.0
131
0.0
112
0.0
122
1.0
132
0.0
 79
     0
146
0.0
1001
ACAD_NAV_VCDISPLAY
1070
     3
  0
ENDTAB
  0
TABLE
  2
LTYPE
  5
5012
330
0
100
AcDbSymbolTable
 70
    17
  0
LTYPE
  5
5067
330
5012
100
AcDbSymbolTableRecord
100
AcDbLinetypeTableRecord
  2
ByBlock
 70
     0
  3

 72
    65
 73
     0
 40
0.0
  0
LTYPE
  5
5068
330
5012
100
AcDbSymbolTableRecord
100
AcDbLinetypeTableRecord
  2
ByLayer
 70
     0
  3

 72
    65
 73
     0
 40
0.0
  0
LTYPE
  5
5069
330
5012
100
AcDbSymbolTableRecord
100
AcDbLinetypeTableRecord
  2
CONTINUOUS
 70
     0
  3
実線
 72
    65
 73
     0
 40
0.0
  0
LTYPE
  5
5081
330
5012
100
AcDbSymbolTableRecord
100
AcDbLinetypeTableRecord
  2
HIDDEN
 70
     0
  3
Hidden __ __ __ __ __ __ __ __ __ __ __ __ __ _
 72
    65
 73
     2
 40
9.524999999999996
 49
6.349999999999997
 74
     0
 49
-3.174999999999998
 74
     0
  0
LTYPE
  5
5082
330
5012
100
AcDbSymbolTableRecord
100
AcDbLinetypeTableRecord
  2
CENTER
 70
     0
  3
Center ____ _ ____ _ ____ _ ____ _ ____ _ ____
 72
    65
 73
     4
 40
50.8
 49
31.75
 74
     0
 49
-6.349999999999997
 74
     0
 49
6.349999999999997
 74
     0
 49
-6.349999999999997
 74
     0
  0
LTYPE
  5
5083
330
5012
100
AcDbSymbolTableRecord
100
AcDbLinetypeTableRecord
  2
PHANTOM2
 70
     0
  3
Phantom (.5x) ___ _ _ ___ _ _ ___ _ _ ___ _ _
 72
    65
 73
     6
 40
31.75
 49
15.875
 74
     0
 49
-3.174999999999998
 74
     0
 49
3.174999999999998
 74
     0
 49
-3.174999999999998
 74
     0
 49
3.174999999999998
 74
     0
 49
-3.174999999999998
 74
     0
  0
LTYPE
  5
5084
330
5012
100
AcDbSymbolTableRecord
100
AcDbLinetypeTableRecord
  2
AMCONSTR
 70
     0
  3
_______________________
 72
    65
 73
     2
 40
9999.0
 49
9999.0
 74
     0
 49
0.0
 74
     0
  0
LTYPE
  5
5085
330
5012
100
AcDbSymbolTableRecord
100
AcDbLinetypeTableRecord
  2
CENTER2
 70
     0
  3
Center (.5x) ___ _ ___ _ ___ _ ___ _ ___ _ ___
 72
    65
 73
     4
 40
1.125
 49
0.75
 74
     0
 49
-0.125
 74
     0
 49
0.125
 74
     0
 49
-0.125
 74
     0
  0
LTYPE
  5
5086
330
5012
100
AcDbSymbolTableRecord
100
AcDbLinetypeTableRecord
  2
HIDDEN2
 70
     0
  3
Hidden (.5x) _ _ _ _ _ _ _ _ _ _ _ _ _ _ _ _ _
 72
    65
 73
     2
 40
0.1875
 49
0.125
 74
     0
 49
-0.0625
 74
     0
  0
LTYPE
  5
5087
330
5012
100
AcDbSymbolTableRecord
100
AcDbLinetypeTableRecord
  2
AMZIGZAG2
 70
     0
  3
/\/-/\/-/\/-/\/-/\/-/\/
 72
    65
 73
     2
 40
0.4401
 49
0.0001
 74
     0
 49
-0.4400000000000003
 74
     0
  0
LTYPE
  5
5088
330
5012
100
AcDbSymbolTableRecord
100
AcDbLinetypeTableRecord
  2
ACANSTGB
 70
     0
  3
__ . . __ . .
 72
    65
 73
     6
 40
0.35433070866
 49
0.15748031496
 74
     0
 49
-0.03937007874
 74
     0
 49
0.03937007874
 74
     0
 49
-0.03937007874
 74
     0
 49
0.03937007874
 74
     0
 49
-0.03937007874
 74
     0
  0
LTYPE
  5
5089
330
5012
100
AcDbSymbolTableRecord
100
AcDbLinetypeTableRecord
  2
ACANSTGL
 70
     0
  3
_ _ _ _ _
 72
    65
 73
     2
 40
0.11811023622
 49
0.07874015748
 74
     0
 49
-0.03937007874
 74
     0
  0
LTYPE
  5
525F
330
5012
100
AcDbSymbolTableRecord
100
AcDbLinetypeTableRecord
  2
AM_ISO02W050
 70
     0
  3
__ __ __ __ __ __ __ __ __ __ __ __ __ __ __
 72
    65
 73
     2
 40
7.5
 49
6.0
 74
     0
 49
-1.5
 74
     0
  0
LTYPE
  5
5260
330
5012
100
AcDbSymbolTableRecord
100
AcDbLinetypeTableRecord
  2
AM_ISO08W050
 70
     0
  3
____ . ____ . ____ . ____ . ____ . ____ . ____
 72
    65
 73
     4
 40
18.0
 49
12.0
 74
     0
 49
-1.5
 74
     0
 49
3.0
 74
     0
 49
-1.5
 74
     0
  0
LTYPE
  5
5261
330
5012
100
AcDbSymbolTableRecord
100
AcDbLinetypeTableRecord
  2
AM_ISO09W050
 70
     0
  3
_____ . . _____ . . _____ . . ____ .. ____
 72
    65
 73
     6
 40
22.5
 49
12.0
 74
     0
 49
-1.5
 74
     0
 49
3.0
 74
     0
 49
-1.5
 74
     0
 49
3.0
 74
     0
 49
-1.5
 74
     0
  0
LTYPE
  5
5262
330
5012
100
AcDbSymbolTableRecord
100
AcDbLinetypeTableRecord
  2
AM_ISO08W050x2
 70
     0
  3
__ . __ . __ . __ . __ . __
 72
    65
 73
     4
 40
9.0
 49
6.0
 74
     0
 49
-0.75
 74
     0
 49
1.5
 74
     0
 49
-0.75
 74
     0
  0
LTYPE
  5
5263
330
5012
100
AcDbSymbolTableRecord
100
AcDbLinetypeTableRecord
  2
AM_ISO02W050x2
 70
     0
  3
 _ _ _ _ _ _ _ _ _ _ _ _
 72
    65
 73
     2
 40
3.75
 49
3.0
 74
     0
 49
-0.75
 74
     0
  0
LTYPE
  5
5266
330
5012
100
AcDbSymbolTableRecord
100
AcDbLinetypeTableRecord
  2
Amzigzag
 70
     0
  3
/\/-/\/-/\/-/\/-/\/-/\/
 72
    65
 73
     2
 40
11.0001
 49
0.0001
 74
     4
 75
   136
340
5265
 46
0.04
 50
0.0
 44
0.0
 45
0.0
 49
-11.0
 74
     0
  0
ENDTAB
  0
TABLE
  2
LAYER
  5
500F
330
0
100
AcDbSymbolTable
 70
     3
  0
LAYER
  5
5061
102
{ACAD_XDICTIONARY
360
51D4
102
}
330
500F
100
AcDbSymbolTableRecord
100
AcDbLayerTableRecord
  2
0
 70
     0
 62
     7
  6
CONTINUOUS
370
    -3
390
501C
  0
LAYER
  5
5090
102
{ACAD_XDICTIONARY
360
51D6
102
}
330
500F
100
AcDbSymbolTableRecord
100
AcDbLayerTableRecord
  2
HOJYO2
 70
     0
 62
     6
  6
HIDDEN
370
    -3
390
501C
  0
LAYER
  5
5091
330
500F
100
AcDbSymbolTableRecord
100
AcDbLayerTableRecord
  2
DEFPOINTS
 70
     0
 62
     7
  6
CONTINUOUS
290
     0
370
    -3
390
501C
  0
ENDTAB
  0
TABLE
  2
STYLE
  5
5010
330
0
100
AcDbSymbolTable
 70
     5
  0
STYLE
  5
5062
330
5010
100
AcDbSymbolTableRecord
100
AcDbTextStyleTableRecord
  2
STANDARD
 70
     0
 40
0.0
 41
1.0
 50
0.0
 71
     0
 42
2.5
  3
txt.shx
  4
extfont2.shx
  0
STYLE
  5
5092
330
5010
100
AcDbSymbolTableRecord
100
AcDbTextStyleTableRecord
  2
MONO-SET
 70
     0
 40
0.0
 41
1.0
 50
0.0
 71
     0
 42
0.2
  3
MONOTXT
  4
BIGFONT
  0
STYLE
  5
5094
330
5010
100
AcDbSymbolTableRecord
100
AcDbTextStyleTableRecord
  2
ACANSGDT
 70
     0
 40
0.0
 41
1.0
 50
0.0
 71
     0
 42
2.5
  3
amgdt.shx
  4

  0
STYLE
  5
5265
330
5010
100
AcDbSymbolTableRecord
100
AcDbTextStyleTableRecord
  2

 70
     1
 40
0.0
 41
1.0
 50
0.0
 71
     0
 42
2.5
  3
genltshp.shx
  4

  0
STYLE
  5
5269
330
5010
100
AcDbSymbolTableRecord
100
AcDbTextStyleTableRecord
  2
ACANSTS
 70
     0
 40
0.0
 41
1.0
 50
0.0
 71
     0
 42
2.5
  3
romans.shx
  4

  0
ENDTAB
  0
TABLE
  2
VIEW
  5
5013
330
0
100
AcDbSymbolTable
 70
     0
  0
ENDTAB
  0
TABLE
  2
UCS
  5
5014
330
0
100
AcDbSymbolTable
 70
     0
  0
ENDTAB
  0
TABLE
  2
APPID
  5
5016
330
0
100
AcDbSymbolTable
 70
    48
  0
APPID
  5
5063
330
5016
100
AcDbSymbolTableRecord
100
AcDbRegAppTableRecord
  2
ACAD
 70
     0
  0
APPID
  5
506A
330
5016
100
AcDbSymbolTableRecord
100
AcDbRegAppTableRecord
  2
ACADANNOTATIVE
 70
     0
  0
APPID
  5
5096
330
5016
100
AcDbSymbolTableRecord
100
AcDbRegAppTableRecord
  2
ACE-LT__COPYRIGHT_TRIALSOFT-JPN
 70
     0
  0
APPID
  5
5097
330
5016
100
AcDbSymbolTableRecord
100
AcDbRegAppTableRecord
  2
MCAD_NO_VIS
 70
     0
  0
APPID
  5
5098
330
5016
100
AcDbSymbolTableRecord
100
AcDbRegAppTableRecord
  2
ACAD_TEMP_GRAPHIC
 70
     0
  0
APPID
  5
5099
330
5016
100
AcDbSymbolTableRecord
100
AcDbRegAppTableRecord
  2
ACAD_PSEXT
 70
     0
  0
APPID
  5
509A
330
5016
100
AcDbSymbolTableRecord
100
AcDbRegAppTableRecord
  2
ACADANNOPO
 70
     0
  0
APPID
  5
509B
330
5016
100
AcDbSymbolTableRecord
100
AcDbRegAppTableRecord
  2
ACAD_DSTYLE_DIMJAG
 70
     0
  0
APPID
  5
509C
330
5016
100
AcDbSymbolTableRecord
100
AcDbRegAppTableRecord
  2
ACAD_DSTYLE_DIMTALN
 70
     0
  0
APPID
  5
509D
330
5016
100
AcDbSymbolTableRecord
100
AcDbRegAppTableRecord
  2
ACAD_MLEADERVER
 70
     0
  0
APPID
  5
509E
330
5016
100
AcDbSymbolTableRecord
100
AcDbRegAppTableRecord
  2
ACAD_NAV_VCDISPLAY
 70
     0
  0
APPID
  5
509F
330
5016
100
AcDbSymbolTableRecord
100
AcDbRegAppTableRecord
  2
ACATTRIBSERVICES
 70
     0
  0
APPID
  5
50A0
330
5016
100
AcDbSymbolTableRecord
100
AcDbRegAppTableRecord
  2
DESIGNERASSEMBLIES
 70
     0
  0
APPID
  5
50A1
330
5016
100
AcDbSymbolTableRecord
100
AcDbRegAppTableRecord
  2
ACAD_DSTYLE_DIMBREAK
 70
     0
  0
APPID
  5
50A2
330
5016
100
AcDbSymbolTableRecord
100
AcDbRegAppTableRecord
  2
ACAECLAYERSTANDARD
 70
     0
  0
APPID
  5
50A3
330
5016
100
AcDbSymbolTableRecord
100
AcDbRegAppTableRecord
  2
AD_DRAW
 70
     0
  0
APPID
  5
50A4
330
5016
100
AcDbSymbolTableRecord
100
AcDbRegAppTableRecord
  2
ACADM_DIM_EDIT
 70
     0
  0
APPID
  5
50A5
330
5016
100
AcDbSymbolTableRecord
100
AcDbRegAppTableRecord
  2
AMDT_DM_ADJ
 70
     0
  0
APPID
  5
50A6
330
5016
100
AcDbSymbolTableRecord
100
AcDbRegAppTableRecord
  2
ACAD_DSTYLE_DIMARC_LENGTH_
 70
     0
  0
APPID
  5
50A7
330
5016
100
AcDbSymbolTableRecord
100
AcDbRegAppTableRecord
  2
ACAD_DSTYLE_DIMJOGGED_JOGA
 70
     0
  0
APPID
  5
50A8
330
5016
100
AcDbSymbolTableRecord
100
AcDbRegAppTableRecord
  2
ACAD_EXEMPT_FROM_CAD_STANDARDS
 70
     0
  0
APPID
  5
50A9
330
5016
100
AcDbSymbolTableRecord
100
AcDbRegAppTableRecord
  2
GENIUS_GENREC_14
 70
     0
  0
APPID
  5
50AA
330
5016
100
AcDbSymbolTableRecord
100
AcDbRegAppTableRecord
  2
GENIUS_GENODEF_13
 70
     0
  0
APPID
  5
50AB
330
5016
100
AcDbSymbolTableRecord
100
AcDbRegAppTableRecord
  2
GENIUS_GENOBJ-N-REC_13
 70
     0
  0
APPID
  5
50AC
330
5016
100
AcDbSymbolTableRecord
100
AcDbRegAppTableRecord
  2
GEVID1362489746
 70
     0
  0
APPID
  5
50AD
330
5016
100
AcDbSymbolTableRecord
100
AcDbRegAppTableRecord
  2
GENIUS_GENBH_13
 70
     0
  0
APPID
  5
50AE
330
5016
100
AcDbSymbolTableRecord
100
AcDbRegAppTableRecord
  2
GENIUS_GENOENT_13
 70
     0
  0
APPID
  5
50AF
330
5016
100
AcDbSymbolTableRecord
100
AcDbRegAppTableRecord
  2
GENIUS_GENOLIS_13
 70
     0
  0
APPID
  5
50B0
330
5016
100
AcDbSymbolTableRecord
100
AcDbRegAppTableRecord
  2
GENIUS_GENOBJ-NBEHI-BHF_13
 70
     0
  0
APPID
  5
50B1
330
5016
100
AcDbSymbolTableRecord
100
AcDbRegAppTableRecord
  2
GENIUS_GENOREF_13
 70
     0
  0
APPID
  5
50B2
330
5016
100
AcDbSymbolTableRecord
100
AcDbRegAppTableRecord
  2
GENIUS_GENOBJ-NBEHI-BHB_13
 70
     0
  0
APPID
  5
50B3
330
5016
100
AcDbSymbolTableRecord
100
AcDbRegAppTableRecord
  2
GEVID1362489747
 70
     0
  0
APPID
  5
50B4
330
5016
100
AcDbSymbolTableRecord
100
AcDbRegAppTableRecord
  2
ACM_PP_DIM_CONSTRAINT
 70
     0
  0
APPID
  5
50B5
330
5016
100
AcDbSymbolTableRecord
100
AcDbRegAppTableRecord
  2
ACM_PP_ASSOCVAR
 70
     0
  0
APPID
  5
50B6
330
5016
100
AcDbSymbolTableRecord
100
AcDbRegAppTableRecord
  2
ACM_PP_DIM_ACTION_MACRO
 70
     0
  0
APPID
  5
50B7
330
5016
100
AcDbSymbolTableRecord
100
AcDbRegAppTableRecord
  2
ACM_PP_DIM_CONSTRAINT_DRAG_GRIP
 70
     0
  0
APPID
  5
50B8
330
5016
100
AcDbSymbolTableRecord
100
AcDbRegAppTableRecord
  2
GEVID1362489748
 70
     0
  0
APPID
  5
50B9
330
5016
100
AcDbSymbolTableRecord
100
AcDbRegAppTableRecord
  2
GENIUS_GENDTOL_13
 70
     0
  0
APPID
  5
50BA
330
5016
100
AcDbSymbolTableRecord
100
AcDbRegAppTableRecord
  2
ACAD_DSTYLE_DIMINSPECT
 70
     0
  0
APPID
  5
50BB
330
5016
100
AcDbSymbolTableRecord
100
AcDbRegAppTableRecord
  2
ACADANNOMONITORALERTICONDI
 70
     0
  0
APPID
  5
50BC
330
5016
100
AcDbSymbolTableRecord
100
AcDbRegAppTableRecord
  2
ACAUTHENVIRON
 70
     0
  0
APPID
  5
50BD
330
5016
100
AcDbSymbolTableRecord
100
AcDbRegAppTableRecord
  2
ACDBDYNAMICBLOCKTRUENAME
 70
     0
  0
APPID
  5
50BE
330
5016
100
AcDbSymbolTableRecord
100
AcDbRegAppTableRecord
  2
ACDBDYNAMICBLOCKGUID
 70
     0
  0
APPID
  5
50BF
330
5016
100
AcDbSymbolTableRecord
100
AcDbRegAppTableRecord
  2
GENIUS_GENTRA_14
 70
     0
  0
APPID
  5
50C0
330
5016
100
AcDbSymbolTableRecord
100
AcDbRegAppTableRecord
  2
GENIUS_GENOBJ-N-LIB_13
 70
     0
  0
APPID
  5
50C1
330
5016
100
AcDbSymbolTableRecord
100
AcDbRegAppTableRecord
  2
GENIUS_GENOBJ-N-RSBK_13
 70
     0
  0
APPID
  5
50C2
330
5016
100
AcDbSymbolTableRecord
100
AcDbRegAppTableRecord
  2
GENIUS_GENSCALE_13
 70
     0
  0
APPID
  5
516A
330
5016
100
AcDbSymbolTableRecord
100
AcDbRegAppTableRecord
  2
AcadAnnoMonitorAlertIconDisabled
 70
     0
  0
ENDTAB
  0
TABLE
  2
DIMSTYLE
  5
5017
330
0
100
AcDbSymbolTable
 70
     8
100
AcDbDimStyleTable
 71
     1
340
50C3
  0
DIMSTYLE
105
5064
330
5017
100
AcDbSymbolTableRecord
100
AcDbDimStyleTableRecord
  2
STANDARD
 70
     0
271
     2
272
     2
279
     2
284
     9
285
     9
286
     9
340
5062
  0
DIMSTYLE
105
50C3
330
5017
100
AcDbSymbolTableRecord
100
AcDbDimStyleTableRecord
  2
AM_JIS
 70
     0
  4
"
 40
10.0
 41
2.0
 42
1.0
 43
7.0
 44
1.8
 48
0.000000001
 73
     0
 74
     0
 77
     3
 78
     9
140
3.0
141
1.0
143
0.0393701
146
0.71
147
1.5
172
     1
176
   256
177
   256
178
     4
271
     2
272
     2
279
     2
284
     9
285
     9
286
     9
340
5062
  0
DIMSTYLE
105
50C4
102
{ACAD_REACTORS
330
524C
102
}
330
5017
100
AcDbSymbolTableRecord
100
AcDbDimStyleTableRecord
  2
AM_ANSI
 70
     0
  4
mm
 41
0.12
 42
0.05
 43
0.5
 44
0.1
 47
0.1
 48
0.1
 78
     7
140
0.12
141
0.0
146
0.71
147
0.06
176
   256
177
   256
178
     2
271
     2
272
     2
279
     2
284
     9
285
     9
286
     9
340
5062
  0
DIMSTYLE
105
50C5
330
5017
100
AcDbSymbolTableRecord
100
AcDbDimStyleTableRecord
  2
AM_ANSI$3
 70
     0
  4
mm
 41
0.12
 42
0.05
 43
0.5
 44
0.1
 47
0.1
 48
0.1
 78
     7
140
0.12
141
0.0
146
0.71
147
0.06
176
   256
177
   256
178
     2
271
     2
272
     2
279
     2
284
     9
285
     9
286
     9
340
5062
  0
DIMSTYLE
105
50C6
330
5017
100
AcDbSymbolTableRecord
100
AcDbDimStyleTableRecord
  2
AM_ANSI$4
 70
     0
  4
mm
 41
0.12
 42
0.05
 43
0.5
 44
0.1
 47
0.1
 48
0.1
 78
     7
140
0.12
141
0.0
146
0.71
147
0.06
176
   256
177
   256
178
     2
271
     2
272
     2
279
     2
284
     9
285
     9
286
     9
340
5062
  0
DIMSTYLE
105
50C7
330
5017
100
AcDbSymbolTableRecord
100
AcDbDimStyleTableRecord
  2
AM_ANSI$7
 70
     0
  4
mm
 41
0.12
 42
0.05
 43
0.5
 44
0.1
 47
0.1
 48
0.1
 78
     7
140
0.12
141
0.0
146
0.71
147
0.06
176
   256
177
   256
178
     2
271
     2
272
     2
279
     2
284
     9
285
     9
286
     9
340
5062
  0
DIMSTYLE
105
50C8
330
5017
100
AcDbSymbolTableRecord
100
AcDbDimStyleTableRecord
  2
AM_ANSI$SF
 70
     0
  4
mm
 41
0.12
 42
0.05
 43
0.5
 44
0.1
 47
0.1
 48
0.1
 75
     1
 76
     1
 78
     7
140
0.12
141
0.0
146
0.71
147
0.06
176
   256
177
   256
178
     2
271
     2
272
     2
279
     2
284
     9
285
     9
286
     9
340
5062
  0
DIMSTYLE
105
50C9
330
5017
100
AcDbSymbolTableRecord
100
AcDbDimStyleTableRecord
  2
AM_ANSI$SH
 70
     0
  4
mm
 41
0.12
 42
0.05
 43
0.5
 44
0.1
 47
0.1
 48
0.1
 75
     1
 76
     1
 78
     7
140
0.12
141
0.0
146
0.71
147
0.06
173
     1
176
   256
177
   256
178
     2
271
     2
272
     2
279
     2
284
     9
285
     9
286
     9
340
5062
  0
ENDTAB
  0
TABLE
  2
BLOCK_RECORD
  5
500E
330
0
100
AcDbSymbolTable
 70
     3
  0
BLOCK_RECORD
  5
507C
102
{ACAD_XDICTIONARY
360
51B8
102
}
330
500E
100
AcDbSymbolTableRecord
100
AcDbBlockTableRecord
  2
*Model_Space
340
507F
  0
BLOCK_RECORD
  5
5078
330
500E
100
AcDbSymbolTableRecord
100
AcDbBlockTableRecord
  2
*Paper_Space
340
507B
  0
BLOCK_RECORD
  5
50D5
330
500E
100
AcDbSymbolTableRecord
100
AcDbBlockTableRecord
  2
_OPEN30
340
0
  0
BLOCK_RECORD
  5
50D9
330
500E
100
AcDbSymbolTableRecord
100
AcDbBlockTableRecord
  2
_ACMFILLEDHALF
340
0
  0
ENDTAB
  0
ENDSEC
  0
SECTION
  2
BLOCKS
  0
BLOCK
  5
507D
330
507C
100
AcDbEntity
  8
0
100
AcDbBlockBegin
  2
*Model_Space
 70
     0
 10
0.0
 20
0.0
 30
0.0
  3
*Model_Space
  1

  0
ENDBLK
  5
507E
330
507C
100
AcDbEntity
  8
0
100
AcDbBlockEnd
  0
BLOCK
  5
5079
330
5078
100
AcDbEntity
 67
     1
  8
0
100
AcDbBlockBegin
  2
*Paper_Space
 70
     0
 10
0.0
 20
0.0
 30
0.0
  3
*Paper_Space
  1

  0
ENDBLK
  5
507A
330
5078
100
AcDbEntity
 67
     1
  8
0
100
AcDbBlockEnd
  0
BLOCK
  5
50D6
330
50D5
100
AcDbEntity
  8
0
100
AcDbBlockBegin
  2
_OPEN30
 70
     0
 10
0.0
 20
0.0
 30
0.0
  3
_OPEN30
  1

  0
LINE
  5
3735
330
50D5
100
AcDbEntity
  8
0
  6
ByBlock
 62
     0
100
AcDbLine
 10
-1.0
 20
0.26794919
 30
0.0
 11
0.0
 21
0.0
 31
0.0
  0
LINE
  5
3736
330
50D5
100
AcDbEntity
  8
0
  6
ByBlock
 62
     0
100
AcDbLine
 10
0.0
 20
0.0
 30
0.0
 11
-1.0
 21
-0.26794919
 31
0.0
  0
LINE
  5
3737
330
50D5
100
AcDbEntity
  8
0
  6
ByBlock
 62
     0
100
AcDbLine
 10
0.0
 20
0.0
 30
0.0
 11
-1.0
 21
0.0
 31
0.0
  0
ENDBLK
  5
3738
330
50D5
100
AcDbEntity
  8
0
100
AcDbBlockEnd
  0
BLOCK
  5
50DA
330
50D9
100
AcDbEntity
  8
0
100
AcDbBlockBegin
  2
_ACMFILLEDHALF
 70
     0
 10
0.0
 20
0.0
 30
0.0
  3
_ACMFILLEDHALF
  1

  0
TRACE
  5
4D0A
330
50D9
100
AcDbEntity
  8
HOJYO2
 62
     0
100
AcDbTrace
 10
-0.8
 20
0.0
 30
0.0
 11
-1.0
 21
0.166666666
 31
0.0
 12
0.0
 22
0.0
 32
0.0
 13
0.0
 23
0.0
 33
0.0
  0
LINE
  5
4D0B
330
50D9
100
AcDbEntity
  8
HOJYO2
 62
     0
100
AcDbLine
 10
-1.0
 20
0.0
 30
0.0
 11
-0.8
 21
0.0
 31
0.0
  0
ENDBLK
  5
4D09
330
50D9
100
AcDbEntity
  8
0
100
AcDbBlockEnd
  0
ENDSEC
  0
SECTION
  2
ENTITIES
  0
TEXT
  5
86E
330
507C
100
AcDbEntity
  8
0
100
AcDbText
 10
926.9153104867148
 20
115.0
 30
0.0
 40
35.0
  1
エアコン防振台
  7
MONO-SET
100
AcDbText
  0
TEXT
  5
86F
330
507C
100
AcDbEntity
  8
0
100
AcDbText
 10
950.0
 20
20.0
 30
0.0
 40
35.0
  1
ABM-226E01
  7
MONO-SET
100
AcDbText
  0
TEXT
  5
87D
330
507C
100
AcDbEntity
  8
0
100
AcDbText
 10
90.00000000000019
 20
1248.981846377292
 30
0.0
 40
30.0
  1
＜基礎ボルト位置＞
100
AcDbText
  0
TEXT
  5
89A
330
507C
100
AcDbEntity
  8
0
100
AcDbText
 10
728.0583139317882
 20
628.4553593617162
 30
0.0
 40
25.0
  1
＜基礎ボルト穴＞
100
AcDbText
  0
LINE
  5
89B
330
507C
100
AcDbEntity
  8
0
100
AcDbLine
 10
553.3580020235087
 20
623.8267406822708
 30
0.0
 11
1022.535272722321
 21
623.8267406822708
 31
0.0
  0
TEXT
  5
8FF
330
507C
100
AcDbEntity
  8
0
100
AcDbText
 10
90.00000000000019
 20
2680.0
 30
0.0
 40
30.0
  1
＜外形寸法図＞
100
AcDbText
  0
LINE
  5
901
330
507C
100
AcDbEntity
  8
0
100
AcDbLine
 10
581.693239487297
 20
2501.727973998449
 30
0.0
 11
930.5245190959366
 21
2501.727973998449
 31
0.0
  0
TEXT
  5
902
330
507C
100
AcDbEntity
  8
0
100
AcDbText
 10
595.5084324796959
 20
2511.106324638053
 30
0.0
 40
25.0
  1
4-φ16＜機器取付穴＞
100
AcDbText
  0
LINE
  5
11A3
330
507C
100
AcDbEntity
  8
0
100
AcDbLine
 10
704.9999672747493
 20
1656.0
 30
0.0
 11
944.9999672747493
 21
1656.0
 31
0.0
  0
LINE
  5
11A4
330
507C
100
AcDbEntity
  8
0
100
AcDbLine
 10
704.9999672747493
 20
1676.0
 30
0.0
 11
944.9999672747493
 21
1676.0
 31
0.0
  0
LINE
  5
11A5
330
507C
100
AcDbEntity
  8
0
100
AcDbLine
 10
704.9999672747493
 20
1676.0
 30
0.0
 11
704.9999672747493
 21
1656.0
 31
0.0
  0
LINE
  5
11A6
330
507C
100
AcDbEntity
  8
0
100
AcDbLine
 10
944.9999672747493
 20
1676.0
 30
0.0
 11
944.9999672747493
 21
1656.0
 31
0.0
  0
LINE
  5
1371
330
507C
100
AcDbEntity
  8
0
100
AcDbLine
 10
1232.99997629755
 20
2341.727949101945
 30
0.0
 11
417.0000000000004
 21
2341.728037743568
 31
0.0
  0
LINE
  5
1372
330
507C
100
AcDbEntity
  8
0
100
AcDbLine
 10
1232.99997629755
 20
2401.727949101934
 30
0.0
 11
417.0000000000007
 21
2401.728037743557
 31
0.0
  0
LINE
  5
1373
330
507C
100
AcDbEntity
  8
0
100
AcDbLine
 10
1232.99997629755
 20
2011.728037654332
 30
0.0
 11
417.0000000000004
 21
2011.727949012708
 31
0.0
  0
LINE
  5
1374
330
507C
100
AcDbEntity
  8
0
100
AcDbLine
 10
1232.99997629755
 20
1951.728037654343
 30
0.0
 11
417.0000000000007
 21
1951.727949012717
 31
0.0
  0
LINE
  5
1375
330
507C
100
AcDbEntity
  8
0
100
AcDbLine
 10
349.9999554235244
 20
2018.728031738608
 30
0.0
 11
349.9999554235244
 21
2334.727955017669
 31
0.0
  0
LINE
  5
1376
330
507C
100
AcDbEntity
  8
0
100
AcDbLine
 10
380.9999554235244
 20
2018.728031738608
 30
0.0
 11
380.9999554235244
 21
2334.727955017669
 31
0.0
  0
LINE
  5
1377
330
507C
100
AcDbEntity
  8
0
100
AcDbLine
 10
412.5
 20
2014.228120380231
 30
0.0
 11
412.5000000000007
 21
1951.728126295965
 31
0.0
  0
LINE
  5
1378
330
507C
100
AcDbEntity
  8
0
100
AcDbLine
 10
417.0
 20
2018.72812038023
 30
0.0
 11
417.0000000000007
 21
1951.728126295965
 31
0.0
  0
ARC
  5
1379
330
507C
100
AcDbEntity
  8
0
100
AcDbCircle
 10
374.0000000000002
 20
1975.728164039512
 30
0.0
 40
24.0
100
AcDbArc
 50
180.0
 51
269.9999502863144
  0
CIRCLE
  5
137A
330
507C
100
AcDbEntity
  8
0
100
AcDbCircle
 10
382.0000000000002
 20
1983.728122475621
 30
0.0
 40
21.0
  0
LINE
  5
137B
330
507C
100
AcDbEntity
  8
0
100
AcDbLine
 10
382.0000000000002
 20
1954.702248456999
 30
0.0
 11
382.0000000000002
 21
2012.753996494244
 31
0.0
  0
LINE
  5
137C
330
507C
100
AcDbEntity
  8
0
100
AcDbLine
 10
373.4999791759794
 20
1951.72816403952
 30
0.0
 11
417.0000000000007
 21
1951.728126295965
 31
0.0
  0
LINE
  5
137D
330
507C
100
AcDbEntity
  8
0
100
AcDbLine
 10
350.0000000000003
 20
2018.72812038023
 30
0.0
 11
417.0
 21
2018.72812038023
 31
0.0
  0
LINE
  5
137E
330
507C
100
AcDbEntity
  8
0
100
AcDbLine
 10
350.0000000000003
 20
2014.228120380231
 30
0.0
 11
417.0
 21
2014.228120380231
 31
0.0
  0
LINE
  5
137F
330
507C
100
AcDbEntity
  8
0
100
AcDbLine
 10
350.0000000000003
 20
1975.228164039512
 30
0.0
 11
350.0000000000003
 21
2018.72812038023
 31
0.0
  0
LINE
  5
1380
330
507C
100
AcDbEntity
  8
0
100
AcDbLine
 10
411.0258740186223
 20
1983.728122475621
 30
0.0
 11
352.9741259813785
 21
1983.728122475621
 31
0.0
  0
LINE
  5
1383
330
507C
100
AcDbEntity
  8
0
100
AcDbLine
 10
524.9999554235244
 20
1993.663738292822
 30
0.0
 11
524.9999554235244
 21
1949.792182429773
 31
0.0
  0
LINE
  5
1384
330
507C
100
AcDbEntity
  8
0
100
AcDbLine
 10
503.0641774920006
 20
1971.727960361298
 30
0.0
 11
546.935733355048
 21
1971.727960361298
 31
0.0
  0
LINE
  5
1387
330
507C
100
AcDbEntity
  8
0
100
AcDbLine
 10
417.0
 20
2334.728043659293
 30
0.0
 11
417.0000000000007
 21
2401.728037743557
 31
0.0
  0
LINE
  5
1388
330
507C
100
AcDbEntity
  8
0
100
AcDbLine
 10
412.5
 20
2339.228043659292
 30
0.0
 11
412.5000000000007
 21
2401.728037743557
 31
0.0
  0
LINE
  5
1389
330
507C
100
AcDbEntity
  8
0
100
AcDbLine
 10
382.0000000000002
 20
2398.753915582525
 30
0.0
 11
382.0000000000002
 21
2340.702167545279
 31
0.0
  0
ARC
  5
138A
330
507C
100
AcDbEntity
  8
0
100
AcDbCircle
 10
374.0000000000002
 20
2377.72800000001
 30
0.0
 40
24.0
100
AcDbArc
 50
90.0000497136855
 51
180.0
  0
LINE
  5
138B
330
507C
100
AcDbEntity
  8
0
100
AcDbLine
 10
350.0000000000003
 20
2339.228043659292
 30
0.0
 11
417.0
 21
2339.228043659292
 31
0.0
  0
LINE
  5
138C
330
507C
100
AcDbEntity
  8
0
100
AcDbLine
 10
350.0000000000003
 20
2334.728043659293
 30
0.0
 11
417.0
 21
2334.728043659293
 31
0.0
  0
LINE
  5
138D
330
507C
100
AcDbEntity
  8
0
100
AcDbLine
 10
350.0000000000003
 20
2378.228000000009
 30
0.0
 11
350.0000000000003
 21
2334.728043659293
 31
0.0
  0
CIRCLE
  5
138E
330
507C
100
AcDbEntity
  8
0
100
AcDbCircle
 10
382.0000000000002
 20
2369.728041563902
 30
0.0
 40
21.0
  0
LINE
  5
1390
330
507C
100
AcDbEntity
  8
0
100
AcDbLine
 10
411.0258740186223
 20
2369.728041563902
 30
0.0
 11
352.9741259813785
 21
2369.728041563902
 31
0.0
  0
LINE
  5
1391
330
507C
100
AcDbEntity
  8
0
100
AcDbLine
 10
373.4999791759794
 20
2401.728
 30
0.0
 11
417.0000000000007
 21
2401.728037743557
 31
0.0
  0
LINE
  5
1393
330
507C
100
AcDbEntity
  8
0
100
AcDbLine
 10
524.9999554235244
 20
2359.792248463455
 30
0.0
 11
524.9999554235244
 21
2403.663804326502
 31
0.0
  0
LINE
  5
1395
330
507C
100
AcDbEntity
  8
0
100
AcDbLine
 10
503.0641774920006
 20
2381.728026394978
 30
0.0
 11
546.935733355048
 21
2381.728026394978
 31
0.0
  0
LINE
  5
1398
330
507C
100
AcDbEntity
  8
0
100
AcDbLine
 10
1268.999955423524
 20
2018.728031738608
 30
0.0
 11
1268.999955423524
 21
2334.727955017669
 31
0.0
  0
LINE
  5
1399
330
507C
100
AcDbEntity
  8
0
100
AcDbLine
 10
1299.999955423524
 20
2018.728031738608
 30
0.0
 11
1299.999955423524
 21
2334.727955017669
 31
0.0
  0
LINE
  5
139E
330
507C
100
AcDbEntity
  8
0
100
AcDbLine
 10
1124.999955912357
 20
1989.16380047549
 30
0.0
 11
1124.999955912357
 21
1945.292244612443
 31
0.0
  0
LINE
  5
139F
330
507C
100
AcDbEntity
  8
0
100
AcDbLine
 10
1103.064177492
 20
1971.728026305759
 30
0.0
 11
1146.935733355048
 21
1971.728026305759
 31
0.0
  0
LINE
  5
13A2
330
507C
100
AcDbEntity
  8
0
100
AcDbLine
 10
1237.49997629755
 20
2014.228031738608
 30
0.0
 11
1237.49997629755
 21
1951.728037654343
 31
0.0
  0
LINE
  5
13A3
330
507C
100
AcDbEntity
  8
0
100
AcDbLine
 10
1232.99997629755
 20
2018.728031738608
 30
0.0
 11
1232.99997629755
 21
1951.728037654343
 31
0.0
  0
LINE
  5
13A4
330
507C
100
AcDbEntity
  8
0
100
AcDbLine
 10
1267.99997629755
 20
1954.702159815376
 30
0.0
 11
1267.99997629755
 21
2012.753907852621
 31
0.0
  0
CIRCLE
  5
13A5
330
507C
100
AcDbEntity
  8
0
100
AcDbCircle
 10
1267.99997629755
 20
1983.728033833998
 30
0.0
 40
21.0
  0
ARC
  5
13A6
330
507C
100
AcDbEntity
  8
0
100
AcDbCircle
 10
1275.99997629755
 20
1975.72807539789
 30
0.0
 40
24.0
100
AcDbArc
 50
270.0000497136854
 51
0.0
  0
LINE
  5
13A7
330
507C
100
AcDbEntity
  8
0
100
AcDbLine
 10
1276.49999712157
 20
1951.728075397898
 30
0.0
 11
1232.99997629755
 21
1951.728037654343
 31
0.0
  0
LINE
  5
13A8
330
507C
100
AcDbEntity
  8
0
100
AcDbLine
 10
1238.974102278928
 20
1983.728033833998
 30
0.0
 11
1297.025850316172
 21
1983.728033833998
 31
0.0
  0
LINE
  5
13A9
330
507C
100
AcDbEntity
  8
0
100
AcDbLine
 10
1299.99997629755
 20
2018.728031738608
 30
0.0
 11
1232.99997629755
 21
2018.728031738608
 31
0.0
  0
LINE
  5
13AA
330
507C
100
AcDbEntity
  8
0
100
AcDbLine
 10
1299.99997629755
 20
2014.228031738608
 30
0.0
 11
1232.99997629755
 21
2014.228031738608
 31
0.0
  0
LINE
  5
13AD
330
507C
100
AcDbEntity
  8
0
100
AcDbLine
 10
1299.99997629755
 20
1975.22807539789
 30
0.0
 11
1299.99997629755
 21
2018.728031738608
 31
0.0
  0
LINE
  5
13B2
330
507C
100
AcDbEntity
  8
0
100
AcDbLine
 10
1124.999955423524
 20
2359.792182518993
 30
0.0
 11
1124.999955423524
 21
2403.663738382042
 31
0.0
  0
LINE
  5
13B3
330
507C
100
AcDbEntity
  8
0
100
AcDbLine
 10
1103.064177492
 20
2381.727960450517
 30
0.0
 11
1146.935733355048
 21
2381.727960450517
 31
0.0
  0
LINE
  5
13B5
330
507C
100
AcDbEntity
  8
0
100
AcDbLine
 10
1237.49997629755
 20
2339.227955017669
 30
0.0
 11
1237.49997629755
 21
2401.727949101934
 31
0.0
  0
LINE
  5
13B6
330
507C
100
AcDbEntity
  8
0
100
AcDbLine
 10
1232.99997629755
 20
2334.727955017669
 30
0.0
 11
1232.99997629755
 21
2401.727949101934
 31
0.0
  0
LINE
  5
13B7
330
507C
100
AcDbEntity
  8
0
100
AcDbLine
 10
1267.99997629755
 20
2398.753826940901
 30
0.0
 11
1267.99997629755
 21
2340.702078903656
 31
0.0
  0
ARC
  5
13B8
330
507C
100
AcDbEntity
  8
0
100
AcDbCircle
 10
1275.99997629755
 20
2377.727911358386
 30
0.0
 40
24.0
100
AcDbArc
 50
0.0
 51
89.99995028631451
  0
LINE
  5
13B9
330
507C
100
AcDbEntity
  8
0
100
AcDbLine
 10
1299.99997629755
 20
2334.727955017669
 30
0.0
 11
1232.99997629755
 21
2334.727955017669
 31
0.0
  0
LINE
  5
13BA
330
507C
100
AcDbEntity
  8
0
100
AcDbLine
 10
1299.99997629755
 20
2339.227955017669
 30
0.0
 11
1232.99997629755
 21
2339.227955017669
 31
0.0
  0
LINE
  5
13BB
330
507C
100
AcDbEntity
  8
0
100
AcDbLine
 10
1238.974102278928
 20
2369.727952922279
 30
0.0
 11
1297.025850316172
 21
2369.727952922279
 31
0.0
  0
CIRCLE
  5
13BC
330
507C
100
AcDbEntity
  8
0
100
AcDbCircle
 10
1267.99997629755
 20
2369.727952922279
 30
0.0
 40
21.0
  0
LINE
  5
13BE
330
507C
100
AcDbEntity
  8
0
100
AcDbLine
 10
1299.99997629755
 20
2378.227911358385
 30
0.0
 11
1299.99997629755
 21
2334.727955017669
 31
0.0
  0
LINE
  5
13BF
330
507C
100
AcDbEntity
  8
0
100
AcDbLine
 10
1276.49999712157
 20
2401.727911358377
 30
0.0
 11
1232.99997629755
 21
2401.727949101934
 31
0.0
  0
LINE
  5
1552
330
507C
100
AcDbEntity
  8
0
100
AcDbLine
 10
1124.999934549498
 20
1584.121341004633
 30
0.0
 11
1124.999934549498
 21
1526.694335075292
 31
0.0
  0
LINE
  5
1553
330
507C
100
AcDbEntity
  8
0
100
AcDbLine
 10
524.9999345494982
 20
1584.12127506017
 30
0.0
 11
524.9999345494982
 21
1527.926577359304
 31
0.0
  0
LINE
  5
1555
330
507C
100
AcDbEntity
  8
0
100
AcDbLine
 10
417.0000000000004
 20
1541.999999999999
 30
0.0
 11
1232.999934549497
 21
1541.999999999999
 31
0.0
  0
LINE
  5
1571
330
507C
100
AcDbEntity
  8
0
100
AcDbLine
 10
417.0000000000004
 20
1651.0
 30
0.0
 11
1232.999934549498
 21
1651.0
 31
0.0
  0
LINE
  5
1572
330
507C
100
AcDbEntity
  8
0
100
AcDbLine
 10
417.0000000000004
 20
1681.0
 30
0.0
 11
1232.999934549498
 21
1681.0
 31
0.0
  0
LINE
  5
15E8
330
507C
100
AcDbEntity
  8
0
100
AcDbLine
 10
524.9999345494982
 20
1694.25270398934
 30
0.0
 11
524.9999345494982
 21
1638.058006288473
 31
0.0
  0
LINE
  5
161B
330
507C
100
AcDbEntity
  8
0
100
AcDbLine
 10
1124.999934549498
 20
1694.2527699338
 30
0.0
 11
1124.999934549498
 21
1636.82576400446
 31
0.0
  0
LINE
  5
1742
330
507C
100
AcDbEntity
  8
0
100
AcDbLine
 10
412.5000000000007
 20
1681.0
 30
0.0
 11
412.5000000000007
 21
1618.499999999999
 31
0.0
  0
LINE
  5
1743
330
507C
100
AcDbEntity
  8
0
100
AcDbLine
 10
417.0000000000007
 20
1681.0
 30
0.0
 11
417.0000000000007
 21
1618.499999999999
 31
0.0
  0
LINE
  5
1744
330
507C
100
AcDbEntity
  8
0
100
AcDbLine
 10
350.0000000000003
 20
1681.0
 30
0.0
 11
350.0000000000003
 21
1611.0
 31
0.0
  0
ARC
  5
1746
330
507C
100
AcDbEntity
  8
0
100
AcDbCircle
 10
392.3923048454128
 20
1630.235714285714
 30
0.0
 40
3.464285714285711
100
AcDbArc
 50
359.4093113971839
 51
180.590688602816
  0
LINE
  5
1747
330
507C
100
AcDbEntity
  8
0
100
AcDbLine
 10
381.9904517889629
 20
1623.7
 30
0.0
 11
401.9906738308357
 21
1623.7
 31
0.0
  0
LINE
  5
1748
330
507C
100
AcDbEntity
  8
0
100
AcDbLine
 10
381.9999999999997
 20
1620.5
 30
0.0
 11
401.9906738308357
 21
1620.5
 31
0.0
  0
LINE
  5
1749
330
507C
100
AcDbEntity
  8
0
100
AcDbLine
 10
381.9999999999997
 20
1615.5
 30
0.0
 11
409.4999999999997
 21
1615.499999999999
 31
0.0
  0
LINE
  5
174A
330
507C
100
AcDbEntity
  8
0
100
AcDbLine
 10
381.9999999999997
 20
1611.0
 30
0.0
 11
409.4999999999997
 21
1610.999999999999
 31
0.0
  0
LINE
  5
174B
330
507C
100
AcDbEntity
  8
0
100
AcDbLine
 10
381.9999999999997
 20
1607.5
 30
0.0
 11
403.4999999999997
 21
1607.5
 31
0.0
  0
LINE
  5
174C
330
507C
100
AcDbEntity
  8
0
100
AcDbLine
 10
381.9999999999997
 20
1599.999999999999
 30
0.0
 11
401.9999999999996
 21
1599.999999999999
 31
0.0
  0
ARC
  5
174D
330
507C
100
AcDbEntity
  8
0
100
AcDbCircle
 10
392.3922999999999
 20
1588.109520999999
 30
0.0
 40
5.090450299999996
100
AcDbArc
 50
47.11668999998199
 51
132.8833700000024
  0
ARC
  5
174E
330
507C
100
AcDbEntity
  8
0
100
AcDbCircle
 10
392.3922999999999
 20
1588.290448999998
 30
0.0
 40
5.090450299999996
100
AcDbArc
 50
227.1166399999841
 51
312.8833169999812
  0
ARC
  5
174F
330
507C
100
AcDbEntity
  8
0
100
AcDbCircle
 10
392.3922565677115
 20
1568.090466
 30
0.0
 40
5.090450299999996
100
AcDbArc
 50
227.1166399999841
 51
312.8833200000163
  0
LINE
  5
1750
330
507C
100
AcDbEntity
  8
0
100
AcDbLine
 10
366.9999999999997
 20
1583.2
 30
0.0
 11
396.9999999999997
 21
1583.2
 31
0.0
  0
LINE
  5
1751
330
507C
100
AcDbEntity
  8
0
100
AcDbLine
 10
350.0000000000003
 20
1579.999999999999
 30
0.0
 11
408.4999999999998
 21
1580.0
 31
0.0
  0
LINE
  5
1752
330
507C
100
AcDbEntity
  8
0
100
AcDbLine
 10
350.0000000000003
 20
1575.499999999999
 30
0.0
 11
408.5000000000007
 21
1575.5
 31
0.0
  0
LINE
  5
1753
330
507C
100
AcDbEntity
  8
0
100
AcDbLine
 10
417.0000000000007
 20
1541.999999999999
 30
0.0
 11
356.3000000000009
 21
1541.999999999999
 31
0.0
  0
ARC
  5
1754
330
507C
100
AcDbEntity
  8
0
100
AcDbCircle
 10
395.0000000000007
 20
1550.0
 30
0.0
 40
7.0
100
AcDbArc
 50
0.0
 51
90.0
  0
LINE
  5
1755
330
507C
100
AcDbEntity
  8
0
100
AcDbLine
 10
381.9999999999997
 20
1637.659543302269
 30
0.0
 11
381.9999999999997
 21
1559.37616872948
 31
0.0
  0
LINE
  5
1756
330
507C
100
AcDbEntity
  8
0
100
AcDbLine
 10
389.9734559613784
 20
1599.999999999999
 30
0.0
 11
389.9750925245337
 21
1593.199969999998
 31
0.0
  0
LINE
  5
1757
330
507C
100
AcDbEntity
  8
0
100
AcDbLine
 10
373.9734553849406
 20
1599.999999999999
 30
0.0
 11
373.975091948096
 21
1593.199969999998
 31
0.0
  0
LINE
  5
1758
330
507C
100
AcDbEntity
  8
0
100
AcDbLine
 10
356.0000000000008
 20
1541.999999999999
 30
0.0
 11
353.0000000000003
 21
1541.999999999999
 31
0.0
  0
ARC
  5
1759
330
507C
100
AcDbEntity
  8
0
100
AcDbCircle
 10
353.0000000000003
 20
1544.999999999999
 30
0.0
 40
3.0
100
AcDbArc
 50
180.0
 51
270.0
  0
LINE
  5
175A
330
507C
100
AcDbEntity
  8
0
100
AcDbLine
 10
350.0000000000003
 20
1544.999999999999
 30
0.0
 11
350.0000000000003
 21
1579.999999999999
 31
0.0
  0
LINE
  5
175B
330
507C
100
AcDbEntity
  8
0
100
AcDbLine
 10
388.92819
 20
1591.839508999998
 30
0.0
 11
388.92819
 21
1584.56046
 31
0.0
  0
LINE
  5
175C
330
507C
100
AcDbEntity
  8
0
100
AcDbLine
 10
388.9281665677111
 20
1564.360478
 30
0.0
 11
388.9281665677111
 21
1575.499999999999
 31
0.0
  0
LINE
  5
175D
330
507C
100
AcDbEntity
  8
0
100
AcDbLine
 10
390.4999999999997
 20
1580.0
 30
0.0
 11
390.4999999999997
 21
1575.5
 31
0.0
  0
LINE
  5
175E
330
507C
100
AcDbEntity
  8
0
100
AcDbLine
 10
368.143606
 20
1591.839502999999
 30
0.0
 11
368.143606
 21
1584.560467
 31
0.0
  0
LINE
  5
175F
330
507C
100
AcDbEntity
  8
0
100
AcDbLine
 10
375.0717909999996
 20
1591.839508999998
 30
0.0
 11
375.0717909999996
 21
1584.56046
 31
0.0
  0
ARC
  5
1760
330
507C
100
AcDbEntity
  8
0
100
AcDbCircle
 10
371.6076949999999
 20
1588.109520999999
 30
0.0
 40
5.090450299999996
100
AcDbArc
 50
47.11663999998404
 51
132.8833200000164
  0
ARC
  5
1761
330
507C
100
AcDbEntity
  8
0
100
AcDbCircle
 10
371.6076949999999
 20
1588.290448999998
 30
0.0
 40
5.090450299999996
100
AcDbArc
 50
227.1166899999821
 51
312.8833619999789
  0
LINE
  5
1762
330
507C
100
AcDbEntity
  8
0
100
AcDbLine
 10
366.9999999999997
 20
1579.999999999999
 30
0.0
 11
366.9999999999997
 21
1583.2
 31
0.0
  0
LINE
  5
1763
330
507C
100
AcDbEntity
  8
0
100
AcDbLine
 10
368.1435565677114
 20
1564.360478
 30
0.0
 11
368.1435565677114
 21
1575.499999999999
 31
0.0
  0
LINE
  5
1764
330
507C
100
AcDbEntity
  8
0
100
AcDbLine
 10
375.0717465677108
 20
1564.360478
 30
0.0
 11
375.0717465677108
 21
1575.499999999999
 31
0.0
  0
ARC
  5
1765
330
507C
100
AcDbEntity
  8
0
100
AcDbCircle
 10
371.6076465677109
 20
1568.090466
 30
0.0
 40
5.090450299999996
100
AcDbArc
 50
227.1166899999821
 51
312.8833700000023
  0
LINE
  5
1766
330
507C
100
AcDbEntity
  8
0
100
AcDbLine
 10
373.4999999999997
 20
1579.999999999999
 30
0.0
 11
373.4999999999997
 21
1575.499999999999
 31
0.0
  0
LINE
  5
1767
330
507C
100
AcDbEntity
  8
0
100
AcDbLine
 10
392.3922999999999
 20
1593.199969999998
 30
0.0
 11
371.6076949999999
 21
1593.199969999998
 31
0.0
  0
ARC
  5
1768
330
507C
100
AcDbEntity
  8
0
100
AcDbCircle
 10
381.9999999999997
 20
1601.521172999999
 30
0.0
 40
18.321183
100
AcDbArc
 50
247.7806800000021
 51
292.2192999999692
  0
ARC
  5
1769
330
507C
100
AcDbEntity
  8
0
100
AcDbCircle
 10
381.9999999999997
 20
1574.87879
 30
0.0
 40
18.321183
100
AcDbArc
 50
67.78071000000979
 51
112.2193300000002
  0
LINE
  5
176A
330
507C
100
AcDbEntity
  8
0
100
AcDbLine
 10
371.6076465677109
 20
1563.000016999999
 30
0.0
 11
392.3922565677115
 21
1563.000016999999
 31
0.0
  0
ARC
  5
176B
330
507C
100
AcDbEntity
  8
0
100
AcDbCircle
 10
381.999956567711
 20
1581.321179999999
 30
0.0
 40
18.321183
100
AcDbArc
 50
247.7807100000098
 51
292.2193300000003
  0
LINE
  5
176C
330
507C
100
AcDbEntity
  8
0
100
AcDbLine
 10
364.0000000000009
 20
1557.0
 30
0.0
 11
395.0000000000007
 21
1557.0
 31
0.0
  0
LINE
  5
176D
330
507C
100
AcDbEntity
  8
0
100
AcDbLine
 10
357.0000000000007
 20
1542.999999999999
 30
0.0
 11
357.0000000000007
 21
1550.0
 31
0.0
  0
ARC
  5
176E
330
507C
100
AcDbEntity
  8
0
100
AcDbCircle
 10
356.0000000000008
 20
1542.999999999999
 30
0.0
 40
1.0
100
AcDbArc
 50
270.0
 51
0.0
  0
ARC
  5
176F
330
507C
100
AcDbEntity
  8
0
100
AcDbCircle
 10
364.0000000000009
 20
1550.0
 30
0.0
 40
7.0
100
AcDbArc
 50
90.0
 51
180.0
  0
LINE
  5
1770
330
507C
100
AcDbEntity
  8
0
100
AcDbLine
 10
350.0000000000003
 20
1611.0
 30
0.0
 11
381.9999999999997
 21
1610.999999999999
 31
0.0
  0
LINE
  5
1771
330
507C
100
AcDbEntity
  8
0
100
AcDbLine
 10
350.0000000000003
 20
1615.5
 30
0.0
 11
381.9999999999997
 21
1615.499999999999
 31
0.0
  0
LINE
  5
1772
330
507C
100
AcDbEntity
  8
0
100
AcDbLine
 10
393.8000000000002
 20
1607.5
 30
0.0
 11
393.8000000000002
 21
1610.999999999999
 31
0.0
  0
LINE
  5
1773
330
507C
100
AcDbEntity
  8
0
100
AcDbLine
 10
370.2000000000008
 20
1607.499999999999
 30
0.0
 11
370.2000000000002
 21
1610.999999999999
 31
0.0
  0
LINE
  5
1774
330
507C
100
AcDbEntity
  8
0
100
AcDbLine
 10
388.9282032302757
 20
1623.7
 30
0.0
 11
388.9282032302757
 21
1630.2
 31
0.0
  0
LINE
  5
1775
330
507C
100
AcDbEntity
  8
0
100
AcDbLine
 10
360.4999999999997
 20
1607.5
 30
0.0
 11
360.4999999999997
 21
1599.999999999999
 31
0.0
  0
LINE
  5
1776
330
507C
100
AcDbEntity
  8
0
100
AcDbLine
 10
361.9906727511117
 20
1623.7
 30
0.0
 11
361.9906727511117
 21
1620.5
 31
0.0
  0
ARC
  5
1777
330
507C
100
AcDbEntity
  8
0
100
AcDbCircle
 10
371.6076951545868
 20
1630.235714285714
 30
0.0
 40
3.464285714285711
100
AcDbArc
 50
359.4093113971839
 51
180.590688602816
  0
LINE
  5
1778
330
507C
100
AcDbEntity
  8
0
100
AcDbLine
 10
368.1435935394486
 20
1623.7
 30
0.0
 11
368.1435935394486
 21
1630.2
 31
0.0
  0
LINE
  5
1779
330
507C
100
AcDbEntity
  8
0
100
AcDbLine
 10
375.0717967697243
 20
1623.7
 30
0.0
 11
375.0717967697243
 21
1630.2
 31
0.0
  0
LINE
  5
177A
330
507C
100
AcDbEntity
  8
0
100
AcDbLine
 10
361.9906727511117
 20
1620.5
 30
0.0
 11
361.9913879072161
 21
1615.5
 31
0.0
  0
LINE
  5
177B
330
507C
100
AcDbEntity
  8
0
100
AcDbLine
 10
360.4999999999997
 20
1599.999999999999
 30
0.0
 11
361.9999999999997
 21
1599.999999999999
 31
0.0
  0
LINE
  5
177C
330
507C
100
AcDbEntity
  8
0
100
AcDbLine
 10
371.6076951545868
 20
1633.7
 30
0.0
 11
392.3923048454128
 21
1633.7
 31
0.0
  0
LINE
  5
177D
330
507C
100
AcDbEntity
  8
0
100
AcDbLine
 10
361.9906727511117
 20
1623.7
 30
0.0
 11
381.9904517889629
 21
1623.699999999999
 31
0.0
  0
ARC
  5
177E
330
507C
100
AcDbEntity
  8
0
100
AcDbCircle
 10
381.9999999999997
 20
1625.092857142856
 30
0.0
 40
8.607142857142846
100
AcDbArc
 50
36.39587919809932
 51
143.6041208019006
  0
LINE
  5
177F
330
507C
100
AcDbEntity
  8
0
100
AcDbLine
 10
361.9906727511117
 20
1620.5
 30
0.0
 11
381.9999999999997
 21
1620.5
 31
0.0
  0
LINE
  5
1780
330
507C
100
AcDbEntity
  8
0
100
AcDbLine
 10
360.4999999999997
 20
1607.5
 30
0.0
 11
381.9999999999997
 21
1607.499999999999
 31
0.0
  0
LINE
  5
1781
330
507C
100
AcDbEntity
  8
0
100
AcDbLine
 10
361.9999999999997
 20
1599.999999999999
 30
0.0
 11
381.9999999999997
 21
1599.999999999999
 31
0.0
  0
ARC
  5
1783
330
507C
100
AcDbEntity
  8
0
100
AcDbCircle
 10
408.4999999999998
 20
1571.5
 30
0.0
 40
4.0
100
AcDbArc
 50
0.0
 51
90.0
  0
LINE
  5
1784
330
507C
100
AcDbEntity
  8
0
100
AcDbLine
 10
395.8563799999994
 20
1591.839508999998
 30
0.0
 11
395.8563799999994
 21
1584.56046
 31
0.0
  0
LINE
  5
1785
330
507C
100
AcDbEntity
  8
0
100
AcDbLine
 10
396.9999999999997
 20
1580.0
 30
0.0
 11
396.9999999999997
 21
1583.2
 31
0.0
  0
LINE
  5
1786
330
507C
100
AcDbEntity
  8
0
100
AcDbLine
 10
395.856346567711
 20
1564.360478
 30
0.0
 11
395.856346567711
 21
1575.499999999999
 31
0.0
  0
ARC
  5
1787
330
507C
100
AcDbEntity
  8
0
100
AcDbCircle
 10
408.5000000000007
 20
1571.5
 30
0.0
 40
8.5
100
AcDbArc
 50
0.0
 51
90.0
  0
LINE
  5
1788
330
507C
100
AcDbEntity
  8
0
100
AcDbLine
 10
402.0000000000006
 20
1542.999999999999
 30
0.0
 11
402.0000000000006
 21
1550.0
 31
0.0
  0
ARC
  5
1789
330
507C
100
AcDbEntity
  8
0
100
AcDbCircle
 10
403.0000000000006
 20
1542.999999999999
 30
0.0
 40
1.0
100
AcDbArc
 50
180.0
 51
270.0
  0
LINE
  5
178A
330
507C
100
AcDbEntity
  8
0
100
AcDbLine
 10
412.5000000000007
 20
1541.999999999999
 30
0.0
 11
412.5000000000007
 21
1571.5
 31
0.0
  0
LINE
  5
178B
330
507C
100
AcDbEntity
  8
0
100
AcDbLine
 10
417.0000000000007
 20
1541.999999999999
 30
0.0
 11
417.0000000000007
 21
1571.5
 31
0.0
  0
ARC
  5
178F
330
507C
100
AcDbEntity
  8
0
100
AcDbCircle
 10
409.4999999999997
 20
1618.499999999999
 30
0.0
 40
3.0
100
AcDbArc
 50
270.0
 51
0.0
  0
LINE
  5
1790
330
507C
100
AcDbEntity
  8
0
100
AcDbLine
 10
395.8564064605509
 20
1630.2
 30
0.0
 11
395.8564064605509
 21
1623.7
 31
0.0
  0
LINE
  5
1791
330
507C
100
AcDbEntity
  8
0
100
AcDbLine
 10
401.9906738308357
 20
1623.7
 30
0.0
 11
401.9906738308357
 21
1620.5
 31
0.0
  0
LINE
  5
1792
330
507C
100
AcDbEntity
  8
0
100
AcDbLine
 10
401.9999999999996
 20
1599.999999999999
 30
0.0
 11
403.4999999999997
 21
1599.999999999999
 31
0.0
  0
LINE
  5
1793
330
507C
100
AcDbEntity
  8
0
100
AcDbLine
 10
403.4999999999997
 20
1607.5
 30
0.0
 11
403.4999999999997
 21
1599.999999999999
 31
0.0
  0
LINE
  5
1794
330
507C
100
AcDbEntity
  8
0
100
AcDbLine
 10
401.9906738308357
 20
1620.5
 30
0.0
 11
401.9913889869403
 21
1615.5
 31
0.0
  0
ARC
  5
1795
330
507C
100
AcDbEntity
  8
0
100
AcDbCircle
 10
409.4999999999997
 20
1618.499999999999
 30
0.0
 40
7.5
100
AcDbArc
 50
270.0
 51
0.0
  0
LINE
  5
179B
330
507C
100
AcDbEntity
  8
0
100
AcDbLine
 10
405.0000000000008
 20
1654.3
 30
0.0
 11
392.1339312526823
 21
1654.3
 31
0.0
  0
ARC
  5
179C
330
507C
100
AcDbEntity
  8
0
100
AcDbCircle
 10
407.000000000001
 20
1654.3
 30
0.0
 40
17.0
100
AcDbArc
 50
97.66225566075876
 51
172.337744339241
  0
LINE
  5
179D
330
507C
100
AcDbEntity
  8
0
100
AcDbLine
 10
417.0000000000007
 20
1681.0
 30
0.0
 11
350.0000000000003
 21
1681.0
 31
0.0
  0
ARC
  5
179E
330
507C
100
AcDbEntity
  8
0
100
AcDbCircle
 10
392.1339312526823
 20
1656.3
 30
0.0
 40
2.0
100
AcDbArc
 50
172.337744339241
 51
270.0
  0
ARC
  5
179F
330
507C
100
AcDbEntity
  8
0
100
AcDbCircle
 10
359.0000000000007
 20
1669.166068747319
 30
0.0
 40
2.0
100
AcDbArc
 50
82.3377443392412
 51
180.0
  0
ARC
  5
17A0
330
507C
100
AcDbEntity
  8
0
100
AcDbCircle
 10
359.0000000000007
 20
1656.3
 30
0.0
 40
2.0
100
AcDbArc
 50
180.0
 51
270.0
  0
ARC
  5
17A1
330
507C
100
AcDbEntity
  8
0
100
AcDbCircle
 10
371.8660687473191
 20
1656.3
 30
0.0
 40
2.0
100
AcDbArc
 50
270.0
 51
7.662255660758972
  0
LINE
  5
17A2
330
507C
100
AcDbEntity
  8
0
100
AcDbLine
 10
359.0000000000007
 20
1654.3
 30
0.0
 11
371.8660687473191
 21
1654.3
 31
0.0
  0
LINE
  5
17A3
330
507C
100
AcDbEntity
  8
0
100
AcDbLine
 10
357.0000000000007
 20
1656.3
 30
0.0
 11
357.0000000000007
 21
1669.166068747319
 31
0.0
  0
ARC
  5
17A4
330
507C
100
AcDbEntity
  8
0
100
AcDbCircle
 10
357.0000000000007
 20
1654.3
 30
0.0
 40
17.0
100
AcDbArc
 50
7.662255660758972
 51
82.3377443392412
  0
ARC
  5
17A5
330
507C
100
AcDbEntity
  8
0
100
AcDbCircle
 10
405.0000000000006
 20
1669.166068747319
 30
0.0
 40
2.0
100
AcDbArc
 50
0.0
 51
97.66225566075876
  0
ARC
  5
17A6
330
507C
100
AcDbEntity
  8
0
100
AcDbCircle
 10
405.0000000000008
 20
1656.3
 30
0.0
 40
2.0
100
AcDbArc
 50
270.0
 51
0.0
  0
LINE
  5
17A7
330
507C
100
AcDbEntity
  8
0
100
AcDbLine
 10
407.000000000001
 20
1656.3
 30
0.0
 11
407.0000000000006
 21
1669.166068747319
 31
0.0
  0
LINE
  5
17BB
330
507C
100
AcDbEntity
  8
0
100
AcDbLine
 10
1244.999976297548
 20
1654.3
 30
0.0
 11
1257.866045044868
 21
1654.3
 31
0.0
  0
LINE
  5
17BC
330
507C
100
AcDbEntity
  8
0
100
AcDbLine
 10
1267.99997629755
 20
1620.5
 30
0.0
 11
1248.009302466714
 21
1620.5
 31
0.0
  0
LINE
  5
17BD
330
507C
100
AcDbEntity
  8
0
100
AcDbLine
 10
1267.99997629755
 20
1615.5
 30
0.0
 11
1240.49997629755
 21
1615.499999999999
 31
0.0
  0
LINE
  5
17BE
330
507C
100
AcDbEntity
  8
0
100
AcDbLine
 10
1267.99997629755
 20
1611.0
 30
0.0
 11
1240.499976297551
 21
1610.999999999999
 31
0.0
  0
LINE
  5
17BF
330
507C
100
AcDbEntity
  8
0
100
AcDbLine
 10
1267.99997629755
 20
1607.5
 30
0.0
 11
1246.49997629755
 21
1607.5
 31
0.0
  0
LINE
  5
17C0
330
507C
100
AcDbEntity
  8
0
100
AcDbLine
 10
1267.99997629755
 20
1599.999999999999
 30
0.0
 11
1247.99997629755
 21
1599.999999999999
 31
0.0
  0
ARC
  5
17C1
330
507C
100
AcDbEntity
  8
0
100
AcDbCircle
 10
1257.60767629755
 20
1588.109520999999
 30
0.0
 40
5.090450299999996
100
AcDbArc
 50
47.1166299999976
 51
132.883310000018
  0
ARC
  5
17C2
330
507C
100
AcDbEntity
  8
0
100
AcDbCircle
 10
1242.999976297548
 20
1654.3
 30
0.0
 40
17.0
100
AcDbArc
 50
7.662255660758988
 51
82.3377443392412
  0
LINE
  5
17C3
330
507C
100
AcDbEntity
  8
0
100
AcDbLine
 10
1232.99997629755
 20
1681.0
 30
0.0
 11
1299.99997629755
 21
1681.0
 31
0.0
  0
ARC
  5
17C4
330
507C
100
AcDbEntity
  8
0
100
AcDbCircle
 10
1257.607671452137
 20
1630.235714285714
 30
0.0
 40
3.464285714285711
100
AcDbArc
 50
359.4093113971839
 51
180.590688602816
  0
LINE
  5
17C5
330
507C
100
AcDbEntity
  8
0
100
AcDbLine
 10
1268.009524508587
 20
1623.7
 30
0.0
 11
1248.009302466714
 21
1623.7
 31
0.0
  0
ARC
  5
17C6
330
507C
100
AcDbEntity
  8
0
100
AcDbCircle
 10
1257.60767629755
 20
1588.290448999998
 30
0.0
 40
5.090450299999996
100
AcDbArc
 50
227.1166830000188
 51
312.8833600000159
  0
ARC
  5
17C7
330
507C
100
AcDbEntity
  8
0
100
AcDbCircle
 10
1257.607719729838
 20
1568.090466
 30
0.0
 40
5.090450299999996
100
AcDbArc
 50
227.1166799999836
 51
312.8833600000159
  0
LINE
  5
17C8
330
507C
100
AcDbEntity
  8
0
100
AcDbLine
 10
1282.99997629755
 20
1583.2
 30
0.0
 11
1252.99997629755
 21
1583.2
 31
0.0
  0
LINE
  5
17C9
330
507C
100
AcDbEntity
  8
0
100
AcDbLine
 10
1299.99997629755
 20
1579.999999999999
 30
0.0
 11
1241.49997629755
 21
1580.0
 31
0.0
  0
LINE
  5
17CA
330
507C
100
AcDbEntity
  8
0
100
AcDbLine
 10
1299.99997629755
 20
1575.499999999999
 30
0.0
 11
1241.49997629755
 21
1575.5
 31
0.0
  0
LINE
  5
17CB
330
507C
100
AcDbEntity
  8
0
100
AcDbLine
 10
1232.99997629755
 20
1541.999999999999
 30
0.0
 11
1293.699976297549
 21
1541.999999999999
 31
0.0
  0
LINE
  5
17CC
330
507C
100
AcDbEntity
  8
0
100
AcDbLine
 10
1285.99997629755
 20
1557.0
 30
0.0
 11
1254.99997629755
 21
1557.0
 31
0.0
  0
LINE
  5
17CD
330
507C
100
AcDbEntity
  8
0
100
AcDbLine
 10
1260.026520336172
 20
1599.999999999999
 30
0.0
 11
1260.024883773017
 21
1593.199969999998
 31
0.0
  0
LINE
  5
17CE
330
507C
100
AcDbEntity
  8
0
100
AcDbLine
 10
1276.02652091261
 20
1599.999999999999
 30
0.0
 11
1276.024884349454
 21
1593.199969999998
 31
0.0
  0
LINE
  5
17CF
330
507C
100
AcDbEntity
  8
0
100
AcDbLine
 10
1267.99997629755
 20
1637.659543302269
 30
0.0
 11
1267.99997629755
 21
1559.37616872948
 31
0.0
  0
ARC
  5
17D0
330
507C
100
AcDbEntity
  8
0
100
AcDbCircle
 10
1296.99997629755
 20
1544.999999999999
 30
0.0
 40
3.0
100
AcDbArc
 50
270.0
 51
0.000000000000007
  0
LINE
  5
17D1
330
507C
100
AcDbEntity
  8
0
100
AcDbLine
 10
1299.99997629755
 20
1544.999999999999
 30
0.0
 11
1299.99997629755
 21
1579.999999999999
 31
0.0
  0
LINE
  5
17D2
330
507C
100
AcDbEntity
  8
0
100
AcDbLine
 10
1292.999976297549
 20
1542.999999999999
 30
0.0
 11
1292.999976297549
 21
1550.0
 31
0.0
  0
LINE
  5
17D3
330
507C
100
AcDbEntity
  8
0
100
AcDbLine
 10
1293.99997629755
 20
1541.999999999999
 30
0.0
 11
1296.99997629755
 21
1541.999999999999
 31
0.0
  0
ARC
  5
17D4
330
507C
100
AcDbEntity
  8
0
100
AcDbCircle
 10
1293.99997629755
 20
1542.999999999999
 30
0.0
 40
1.0
100
AcDbArc
 50
180.0
 51
270.0
  0
ARC
  5
17D5
330
507C
100
AcDbEntity
  8
0
100
AcDbCircle
 10
1278.39228129755
 20
1588.109520999999
 30
0.0
 40
5.090450299999996
100
AcDbArc
 50
47.11667999998359
 51
132.8833600000159
  0
LINE
  5
17D6
330
507C
100
AcDbEntity
  8
0
100
AcDbLine
 10
1257.60767629755
 20
1593.199969999998
 30
0.0
 11
1278.39228129755
 21
1593.199969999998
 31
0.0
  0
ARC
  5
17D7
330
507C
100
AcDbEntity
  8
0
100
AcDbCircle
 10
1278.39228129755
 20
1588.290448999998
 30
0.0
 40
5.090450299999996
100
AcDbArc
 50
227.1166380000212
 51
312.8833100000179
  0
ARC
  5
17D8
330
507C
100
AcDbEntity
  8
0
100
AcDbCircle
 10
1278.392329729839
 20
1568.090466
 30
0.0
 40
5.090450299999996
100
AcDbArc
 50
227.1166299999976
 51
312.8833100000179
  0
LINE
  5
17D9
330
507C
100
AcDbEntity
  8
0
100
AcDbLine
 10
1278.392329729839
 20
1563.000016999999
 30
0.0
 11
1257.607719729838
 21
1563.000016999999
 31
0.0
  0
LINE
  5
17DA
330
507C
100
AcDbEntity
  8
0
100
AcDbLine
 10
1282.99997629755
 20
1579.999999999999
 30
0.0
 11
1282.99997629755
 21
1583.2
 31
0.0
  0
LINE
  5
17DB
330
507C
100
AcDbEntity
  8
0
100
AcDbLine
 10
1281.856419729839
 20
1564.360478
 30
0.0
 11
1281.856419729839
 21
1575.499999999999
 31
0.0
  0
ARC
  5
17DC
330
507C
100
AcDbEntity
  8
0
100
AcDbCircle
 10
1285.99997629755
 20
1550.0
 30
0.0
 40
7.0
100
AcDbArc
 50
0.000000000000007
 51
90.0
  0
LINE
  5
17DD
330
507C
100
AcDbEntity
  8
0
100
AcDbLine
 10
1281.85637029755
 20
1591.839502999999
 30
0.0
 11
1281.85637029755
 21
1584.560467
 31
0.0
  0
ARC
  5
17DE
330
507C
100
AcDbEntity
  8
0
100
AcDbCircle
 10
1267.99997629755
 20
1574.87879
 30
0.0
 40
18.321183
100
AcDbArc
 50
67.78066999999977
 51
112.2192899999902
  0
LINE
  5
17DF
330
507C
100
AcDbEntity
  8
0
100
AcDbLine
 10
1259.49997629755
 20
1580.0
 30
0.0
 11
1259.49997629755
 21
1575.5
 31
0.0
  0
LINE
  5
17E0
330
507C
100
AcDbEntity
  8
0
100
AcDbLine
 10
1261.071809729839
 20
1564.360478
 30
0.0
 11
1261.071809729839
 21
1575.499999999999
 31
0.0
  0
LINE
  5
17E1
330
507C
100
AcDbEntity
  8
0
100
AcDbLine
 10
1274.928229729838
 20
1564.360478
 30
0.0
 11
1274.928229729838
 21
1575.499999999999
 31
0.0
  0
LINE
  5
17E2
330
507C
100
AcDbEntity
  8
0
100
AcDbLine
 10
1276.49997629755
 20
1579.999999999999
 30
0.0
 11
1276.49997629755
 21
1575.499999999999
 31
0.0
  0
ARC
  5
17E3
330
507C
100
AcDbEntity
  8
0
100
AcDbCircle
 10
1267.99997629755
 20
1601.521172999999
 30
0.0
 40
18.321183
100
AcDbArc
 50
247.7807000000308
 51
292.2193199999979
  0
ARC
  5
17E4
330
507C
100
AcDbEntity
  8
0
100
AcDbCircle
 10
1268.000019729839
 20
1581.321179999999
 30
0.0
 40
18.321183
100
AcDbArc
 50
247.7806699999998
 51
292.2192899999903
  0
LINE
  5
17E5
330
507C
100
AcDbEntity
  8
0
100
AcDbLine
 10
1261.07178629755
 20
1591.839508999998
 30
0.0
 11
1261.07178629755
 21
1584.56046
 31
0.0
  0
LINE
  5
17E6
330
507C
100
AcDbEntity
  8
0
100
AcDbLine
 10
1274.92818529755
 20
1591.839508999998
 30
0.0
 11
1274.92818529755
 21
1584.56046
 31
0.0
  0
LINE
  5
17E7
330
507C
100
AcDbEntity
  8
0
100
AcDbLine
 10
1299.99997629755
 20
1611.0
 30
0.0
 11
1267.99997629755
 21
1610.999999999999
 31
0.0
  0
LINE
  5
17E8
330
507C
100
AcDbEntity
  8
0
100
AcDbLine
 10
1299.99997629755
 20
1615.5
 30
0.0
 11
1267.99997629755
 21
1615.499999999999
 31
0.0
  0
LINE
  5
17E9
330
507C
100
AcDbEntity
  8
0
100
AcDbLine
 10
1299.99997629755
 20
1681.0
 30
0.0
 11
1299.99997629755
 21
1611.0
 31
0.0
  0
ARC
  5
17EA
330
507C
100
AcDbEntity
  8
0
100
AcDbCircle
 10
1257.866045044868
 20
1656.3
 30
0.0
 40
2.0
100
AcDbArc
 50
270.0
 51
7.662255660758988
  0
ARC
  5
17EB
330
507C
100
AcDbEntity
  8
0
100
AcDbCircle
 10
1278.133907550231
 20
1656.3
 30
0.0
 40
2.0
100
AcDbArc
 50
172.337744339241
 51
270.0
  0
ARC
  5
17EC
330
507C
100
AcDbEntity
  8
0
100
AcDbCircle
 10
1290.999976297549
 20
1656.3
 30
0.0
 40
2.0
100
AcDbArc
 50
270.0
 51
0.000000000000007
  0
ARC
  5
17ED
330
507C
100
AcDbEntity
  8
0
100
AcDbCircle
 10
1278.392281142963
 20
1630.235714285714
 30
0.0
 40
3.464285714285711
100
AcDbArc
 50
359.4093113971839
 51
180.590688602816
  0
LINE
  5
17EE
330
507C
100
AcDbEntity
  8
0
100
AcDbLine
 10
1288.009303546438
 20
1623.7
 30
0.0
 11
1268.009524508587
 21
1623.699999999999
 31
0.0
  0
LINE
  5
17EF
330
507C
100
AcDbEntity
  8
0
100
AcDbLine
 10
1288.009303546438
 20
1620.5
 30
0.0
 11
1267.99997629755
 21
1620.5
 31
0.0
  0
LINE
  5
17F0
330
507C
100
AcDbEntity
  8
0
100
AcDbLine
 10
1289.49997629755
 20
1607.5
 30
0.0
 11
1267.99997629755
 21
1607.499999999999
 31
0.0
  0
LINE
  5
17F1
330
507C
100
AcDbEntity
  8
0
100
AcDbLine
 10
1287.99997629755
 20
1599.999999999999
 30
0.0
 11
1267.99997629755
 21
1599.999999999999
 31
0.0
  0
LINE
  5
17F2
330
507C
100
AcDbEntity
  8
0
100
AcDbLine
 10
1278.392281142963
 20
1633.7
 30
0.0
 11
1257.607671452137
 21
1633.7
 31
0.0
  0
LINE
  5
17F3
330
507C
100
AcDbEntity
  8
0
100
AcDbLine
 10
1290.999976297549
 20
1654.3
 30
0.0
 11
1278.133907550231
 21
1654.3
 31
0.0
  0
LINE
  5
17F4
330
507C
100
AcDbEntity
  8
0
100
AcDbLine
 10
1279.79997629755
 20
1607.499999999999
 30
0.0
 11
1279.79997629755
 21
1610.999999999999
 31
0.0
  0
LINE
  5
17F5
330
507C
100
AcDbEntity
  8
0
100
AcDbLine
 10
1289.49997629755
 20
1607.5
 30
0.0
 11
1289.49997629755
 21
1599.999999999999
 31
0.0
  0
LINE
  5
17F6
330
507C
100
AcDbEntity
  8
0
100
AcDbLine
 10
1288.009303546438
 20
1623.7
 30
0.0
 11
1288.009303546438
 21
1620.5
 31
0.0
  0
LINE
  5
17F7
330
507C
100
AcDbEntity
  8
0
100
AcDbLine
 10
1281.856382758102
 20
1623.7
 30
0.0
 11
1281.856382758102
 21
1630.2
 31
0.0
  0
LINE
  5
17F8
330
507C
100
AcDbEntity
  8
0
100
AcDbLine
 10
1288.009303546438
 20
1620.5
 30
0.0
 11
1288.008588390334
 21
1615.5
 31
0.0
  0
LINE
  5
17F9
330
507C
100
AcDbEntity
  8
0
100
AcDbLine
 10
1289.49997629755
 20
1599.999999999999
 30
0.0
 11
1287.99997629755
 21
1599.999999999999
 31
0.0
  0
LINE
  5
17FA
330
507C
100
AcDbEntity
  8
0
100
AcDbLine
 10
1261.071773067275
 20
1623.7
 30
0.0
 11
1261.071773067275
 21
1630.2
 31
0.0
  0
LINE
  5
17FB
330
507C
100
AcDbEntity
  8
0
100
AcDbLine
 10
1274.928179527825
 20
1623.7
 30
0.0
 11
1274.928179527825
 21
1630.2
 31
0.0
  0
ARC
  5
17FC
330
507C
100
AcDbEntity
  8
0
100
AcDbCircle
 10
1267.99997629755
 20
1625.092857142856
 30
0.0
 40
8.607142857142846
100
AcDbArc
 50
36.39587919809932
 51
143.6041208019006
  0
ARC
  5
17FD
330
507C
100
AcDbEntity
  8
0
100
AcDbCircle
 10
1292.999976297549
 20
1654.3
 30
0.0
 40
17.0
100
AcDbArc
 50
97.66225566075876
 51
172.337744339241
  0
ARC
  5
17FE
330
507C
100
AcDbEntity
  8
0
100
AcDbCircle
 10
1290.999976297549
 20
1669.166068747319
 30
0.0
 40
2.0
100
AcDbArc
 50
0.000000000000007
 51
97.66225566075876
  0
LINE
  5
17FF
330
507C
100
AcDbEntity
  8
0
100
AcDbLine
 10
1292.999976297549
 20
1656.3
 30
0.0
 11
1292.999976297549
 21
1669.166068747319
 31
0.0
  0
LINE
  5
1800
330
507C
100
AcDbEntity
  8
0
100
AcDbLine
 10
1237.49997629755
 20
1541.999999999999
 30
0.0
 11
1237.49997629755
 21
1571.5
 31
0.0
  0
LINE
  5
1801
330
507C
100
AcDbEntity
  8
0
100
AcDbLine
 10
1232.99997629755
 20
1541.999999999999
 30
0.0
 11
1232.99997629755
 21
1571.5
 31
0.0
  0
LINE
  5
1802
330
507C
100
AcDbEntity
  8
0
100
AcDbLine
 10
1247.999976297549
 20
1542.999999999999
 30
0.0
 11
1247.999976297549
 21
1550.0
 31
0.0
  0
ARC
  5
1803
330
507C
100
AcDbEntity
  8
0
100
AcDbCircle
 10
1246.99997629755
 20
1542.999999999999
 30
0.0
 40
1.0
100
AcDbArc
 50
270.0
 51
0.000000000000007
  0
ARC
  5
1804
330
507C
100
AcDbEntity
  8
0
100
AcDbCircle
 10
1241.49997629755
 20
1571.5
 30
0.0
 40
8.5
100
AcDbArc
 50
90.0
 51
180.0
  0
ARC
  5
1805
330
507C
100
AcDbEntity
  8
0
100
AcDbCircle
 10
1254.99997629755
 20
1550.0
 30
0.0
 40
7.0
100
AcDbArc
 50
90.0
 51
180.0
  0
LINE
  5
1806
330
507C
100
AcDbEntity
  8
0
100
AcDbLine
 10
1252.99997629755
 20
1580.0
 30
0.0
 11
1252.99997629755
 21
1583.2
 31
0.0
  0
LINE
  5
1807
330
507C
100
AcDbEntity
  8
0
100
AcDbLine
 10
1254.143629729839
 20
1564.360478
 30
0.0
 11
1254.143629729839
 21
1575.499999999999
 31
0.0
  0
ARC
  5
1808
330
507C
100
AcDbEntity
  8
0
100
AcDbCircle
 10
1241.49997629755
 20
1571.5
 30
0.0
 40
4.0
100
AcDbArc
 50
90.0
 51
180.0
  0
LINE
  5
1809
330
507C
100
AcDbEntity
  8
0
100
AcDbLine
 10
1254.143596297551
 20
1591.839508999998
 30
0.0
 11
1254.143596297551
 21
1584.56046
 31
0.0
  0
ARC
  5
180A
330
507C
100
AcDbEntity
  8
0
100
AcDbCircle
 10
1244.999976297548
 20
1656.3
 30
0.0
 40
2.0
100
AcDbArc
 50
180.0
 51
270.0
  0
LINE
  5
180B
330
507C
100
AcDbEntity
  8
0
100
AcDbLine
 10
1237.49997629755
 20
1681.0
 30
0.0
 11
1237.49997629755
 21
1618.499999999999
 31
0.0
  0
LINE
  5
180C
330
507C
100
AcDbEntity
  8
0
100
AcDbLine
 10
1232.99997629755
 20
1681.0
 30
0.0
 11
1232.99997629755
 21
1618.499999999999
 31
0.0
  0
ARC
  5
180D
330
507C
100
AcDbEntity
  8
0
100
AcDbCircle
 10
1240.49997629755
 20
1618.499999999999
 30
0.0
 40
7.5
100
AcDbArc
 50
180.0
 51
270.0
  0
LINE
  5
180E
330
507C
100
AcDbEntity
  8
0
100
AcDbLine
 10
1256.19997629755
 20
1607.5
 30
0.0
 11
1256.19997629755
 21
1610.999999999999
 31
0.0
  0
LINE
  5
180F
330
507C
100
AcDbEntity
  8
0
100
AcDbLine
 10
1254.143569836999
 20
1630.2
 30
0.0
 11
1254.143569836999
 21
1623.7
 31
0.0
  0
LINE
  5
1810
330
507C
100
AcDbEntity
  8
0
100
AcDbLine
 10
1248.009302466714
 20
1623.7
 30
0.0
 11
1248.009302466714
 21
1620.5
 31
0.0
  0
LINE
  5
1811
330
507C
100
AcDbEntity
  8
0
100
AcDbLine
 10
1247.99997629755
 20
1599.999999999999
 30
0.0
 11
1246.49997629755
 21
1599.999999999999
 31
0.0
  0
LINE
  5
1812
330
507C
100
AcDbEntity
  8
0
100
AcDbLine
 10
1246.49997629755
 20
1607.5
 30
0.0
 11
1246.49997629755
 21
1599.999999999999
 31
0.0
  0
LINE
  5
1813
330
507C
100
AcDbEntity
  8
0
100
AcDbLine
 10
1248.009302466714
 20
1620.5
 30
0.0
 11
1248.00858731061
 21
1615.5
 31
0.0
  0
ARC
  5
1814
330
507C
100
AcDbEntity
  8
0
100
AcDbCircle
 10
1240.49997629755
 20
1618.499999999999
 30
0.0
 40
3.0
100
AcDbArc
 50
180.0
 51
270.0
  0
ARC
  5
1815
330
507C
100
AcDbEntity
  8
0
100
AcDbCircle
 10
1244.999976297548
 20
1669.166068747319
 30
0.0
 40
2.0
100
AcDbArc
 50
82.3377443392412
 51
180.0
  0
LINE
  5
1816
330
507C
100
AcDbEntity
  8
0
100
AcDbLine
 10
1242.999976297548
 20
1656.3
 30
0.0
 11
1242.999976297548
 21
1669.166068747319
 31
0.0
  0
LINE
  5
1877
330
507C
100
AcDbEntity
  8
0
100
AcDbLine
 10
1299.99996249323
 20
681.6462703799816
 30
0.0
 11
349.9999624932264
 21
681.6461845120752
 31
0.0
  0
LINE
  5
1878
330
507C
100
AcDbEntity
  8
0
100
AcDbLine
 10
1268.999963873048
 20
741.6462717646028
 30
0.0
 11
380.9999638730482
 21
741.6461831274306
 31
0.0
  0
LINE
  5
187B
330
507C
100
AcDbEntity
  8
0
100
AcDbLine
 10
1299.99997066941
 20
1131.646175936253
 30
0.0
 11
349.9999706694226
 21
1131.646279134232
 31
0.0
  0
LINE
  5
187C
330
507C
100
AcDbEntity
  8
0
100
AcDbLine
 10
1268.999964151632
 20
1071.64618245607
 30
0.0
 11
380.9999641516425
 21
1071.646272614438
 31
0.0
  0
CIRCLE
  5
187D
330
507C
100
AcDbEntity
  8
0
100
AcDbCircle
 10
524.9999638800759
 20
1101.646260507473
 30
0.0
 40
10.0
  0
LINE
  5
1884
330
507C
100
AcDbEntity
  8
0
100
AcDbLine
 10
524.9999638800759
 20
1079.71048257595
 30
0.0
 11
524.9999638800759
 21
1123.582038438996
 31
0.0
  0
LINE
  5
1885
330
507C
100
AcDbEntity
  8
0
100
AcDbLine
 10
380.9999638730482
 20
741.6461831274308
 30
0.0
 11
380.9999641516423
 21
1071.646272614438
 31
0.0
  0
LINE
  5
1886
330
507C
100
AcDbEntity
  8
0
100
AcDbLine
 10
349.9999624932264
 20
681.6461845120747
 30
0.0
 11
349.9999706694226
 21
1131.646279134232
 31
0.0
  0
CIRCLE
  5
1899
330
507C
100
AcDbEntity
  8
0
100
AcDbCircle
 10
524.9999638800759
 20
711.6461944737935
 30
0.0
 40
10.0
  0
LINE
  5
189A
330
507C
100
AcDbEntity
  8
0
100
AcDbLine
 10
524.9999638800759
 20
733.5819724053171
 30
0.0
 11
524.9999638800759
 21
689.7104165422697
 31
0.0
  0
LINE
  5
189B
330
507C
100
AcDbEntity
  8
0
100
AcDbLine
 10
503.064185948552
 20
711.6461944737935
 30
0.0
 11
546.9357418116003
 21
711.6461944737935
 31
0.0
  0
LINE
  5
18A0
330
507C
100
AcDbEntity
  8
0
100
AcDbLine
 10
503.064185948552
 20
1101.646260507473
 30
0.0
 11
546.9357418116003
 21
1101.646260507473
 31
0.0
  0
CIRCLE
  5
18A1
330
507C
100
AcDbEntity
  8
0
100
AcDbCircle
 10
1124.999963880076
 20
1101.646194563013
 30
0.0
 40
10.0
  0
LINE
  5
18A7
330
507C
100
AcDbEntity
  8
0
100
AcDbLine
 10
1124.999963880076
 20
1079.710416631488
 30
0.0
 11
1124.999963880076
 21
1123.581972494537
 31
0.0
  0
LINE
  5
18A8
330
507C
100
AcDbEntity
  8
0
100
AcDbLine
 10
1103.064185948552
 20
711.646260418255
 30
0.0
 11
1146.9357418116
 21
711.646260418255
 31
0.0
  0
CIRCLE
  5
18A9
330
507C
100
AcDbEntity
  8
0
100
AcDbCircle
 10
1124.999963880076
 20
711.646260418255
 30
0.0
 40
10.0
  0
LINE
  5
18AA
330
507C
100
AcDbEntity
  8
0
100
AcDbLine
 10
1124.999963880076
 20
733.5820383497789
 30
0.0
 11
1124.999963880076
 21
689.7104824867312
 31
0.0
  0
LINE
  5
18AB
330
507C
100
AcDbEntity
  8
0
100
AcDbLine
 10
1268.999963873049
 20
741.6462717646028
 30
0.0
 11
1268.999964151632
 21
1071.64618245607
 31
0.0
  0
LINE
  5
18AC
330
507C
100
AcDbEntity
  8
0
100
AcDbLine
 10
1299.99996249323
 20
681.6462703799816
 30
0.0
 11
1299.99997066941
 21
1131.646175936254
 31
0.0
  0
LINE
  5
18BF
330
507C
100
AcDbEntity
  8
0
100
AcDbLine
 10
1103.064185948552
 20
1101.646194563013
 30
0.0
 11
1146.9357418116
 21
1101.646194563013
 31
0.0
  0
LINE
  5
1A96
330
507C
100
AcDbEntity
  8
0
100
AcDbLine
 10
531.1457474952093
 20
692.6138708175512
 30
0.0
 11
553.3580020235087
 21
623.8267406822708
 31
0.0
  0
TEXT
  5
1C3F
330
507C
100
AcDbEntity
  8
0
100
AcDbText
 10
1175.933654146904
 20
1867.854004453636
 30
0.0
 40
24.0
  1
「配管側」ラベル
 50
359.9999965697933
100
AcDbText
  0
LINE
  5
1C40
330
507C
100
AcDbEntity
  8
0
100
AcDbLine
 10
1144.94733089746
 20
1879.471644849057
 30
0.0
 11
1169.615993007498
 21
1879.471644849057
 31
0.0
  0
LINE
  5
1C8A
330
507C
100
AcDbEntity
  8
0
100
AcDbLine
 10
249.9999554235244
 20
1541.999999999999
 30
0.0
 11
249.9999554235244
 21
1484.425838270156
 31
0.0
  0
LINE
  5
1DA6
330
507C
100
AcDbEntity
  8
0
100
AcDbLine
 10
1163.428070081924
 20
1950.535494700569
 30
0.0
 11
1144.94733089746
 21
1879.471644849057
 31
0.0
  0
LINE
  5
1F56
330
507C
100
AcDbEntity
  8
0
100
AcDbLine
 10
533.5433641908768
 20
2399.811448820889
 30
0.0
 11
581.693239487297
 21
2501.727973998449
 31
0.0
  0
LINE
  5
222B
330
507C
100
AcDbEntity
  8
0
100
AcDbLine
 10
1533.025755272747
 20
2018.727934553528
 30
0.0
 11
1533.025755272747
 21
2334.727869103026
 31
0.0
  0
LINE
  5
222C
330
507C
100
AcDbEntity
  8
0
100
AcDbLine
 10
1564.025755272748
 20
2018.727934553528
 30
0.0
 11
1564.025755272748
 21
2334.727869103026
 31
0.0
  0
LINE
  5
222D
330
507C
100
AcDbEntity
  8
0
100
AcDbLine
 10
1672.025755272749
 20
2018.727934553528
 30
0.0
 11
1672.025755272749
 21
2334.727869103025
 31
0.0
  0
LINE
  5
222F
330
507C
100
AcDbEntity
  8
0
100
AcDbLine
 10
1533.025755272747
 20
2018.727934553529
 30
0.0
 11
1533.025755272747
 21
1951.727934553528
 31
0.0
  0
ARC
  5
2230
330
507C
100
AcDbEntity
  8
0
100
AcDbCircle
 10
1559.725755272747
 20
2008.727934553529
 30
0.0
 40
17.0
100
AcDbArc
 50
187.6622556607584
 51
262.3377443392409
  0
LINE
  5
2231
330
507C
100
AcDbEntity
  8
0
100
AcDbLine
 10
1559.725755272747
 20
2006.727934553529
 30
0.0
 11
1559.725755272747
 21
1993.861865806209
 31
0.0
  0
LINE
  5
2232
330
507C
100
AcDbEntity
  8
0
100
AcDbLine
 10
1657.025755272747
 20
1965.727934553529
 30
0.0
 11
1657.025755272747
 21
1996.727934553529
 31
0.0
  0
LINE
  5
2233
330
507C
100
AcDbEntity
  8
0
100
AcDbLine
 10
1672.025755272748
 20
2018.727934553529
 30
0.0
 11
1672.025755272748
 21
1958.027934553529
 31
0.0
  0
LINE
  5
2234
330
507C
100
AcDbEntity
  8
0
100
AcDbLine
 10
1638.525755272748
 20
1951.727934553528
 30
0.0
 11
1638.525755272747
 21
2010.227934553529
 31
0.0
  0
LINE
  5
2235
330
507C
100
AcDbEntity
  8
0
100
AcDbLine
 10
1634.025755272748
 20
1951.727934553528
 30
0.0
 11
1634.025755272747
 21
2010.227934553528
 31
0.0
  0
LINE
  5
2236
330
507C
100
AcDbEntity
  8
0
100
AcDbLine
 10
1630.825755272747
 20
1968.727934553528
 30
0.0
 11
1630.825755272747
 21
1998.727934553528
 31
0.0
  0
ARC
  5
2237
330
507C
100
AcDbEntity
  8
0
100
AcDbCircle
 10
1645.935289272747
 20
1994.120191121239
 30
0.0
 40
5.090450299999996
100
AcDbArc
 50
317.1166399999832
 51
42.88332000001604
  0
ARC
  5
2238
330
507C
100
AcDbEntity
  8
0
100
AcDbCircle
 10
1625.735306272748
 20
1994.120234553528
 30
0.0
 40
5.090450299999996
100
AcDbArc
 50
317.1166399999832
 51
42.88331699997987
  0
ARC
  5
2239
330
507C
100
AcDbEntity
  8
0
100
AcDbCircle
 10
1625.916234272748
 20
1994.120234553528
 30
0.0
 40
5.090450299999996
100
AcDbArc
 50
137.1166899999814
 51
222.8833700000028
  0
LINE
  5
223A
330
507C
100
AcDbEntity
  8
0
100
AcDbLine
 10
1614.025755272748
 20
1983.727934553528
 30
0.0
 11
1614.025755272748
 21
2003.727934553528
 31
0.0
  0
LINE
  5
223B
330
507C
100
AcDbEntity
  8
0
100
AcDbLine
 10
1606.525755272747
 20
1983.727934553527
 30
0.0
 11
1606.525755272747
 21
2005.227934553528
 31
0.0
  0
LINE
  5
223C
330
507C
100
AcDbEntity
  8
0
100
AcDbLine
 10
1603.025755272747
 20
1983.727934553528
 30
0.0
 11
1603.025755272748
 21
2011.227934553528
 31
0.0
  0
LINE
  5
223D
330
507C
100
AcDbEntity
  8
0
100
AcDbLine
 10
1598.525755272747
 20
1983.727934553527
 30
0.0
 11
1598.525755272748
 21
2011.227934553528
 31
0.0
  0
LINE
  5
223E
330
507C
100
AcDbEntity
  8
0
100
AcDbLine
 10
1593.525755272747
 20
1983.727934553528
 30
0.0
 11
1593.525755272747
 21
2003.718608384364
 31
0.0
  0
LINE
  5
223F
330
507C
100
AcDbEntity
  8
0
100
AcDbLine
 10
1590.325755272747
 20
1983.718386342491
 30
0.0
 11
1590.325755272747
 21
2003.718608384364
 31
0.0
  0
ARC
  5
2240
330
507C
100
AcDbEntity
  8
0
100
AcDbCircle
 10
1583.790040987032
 20
1994.120239398941
 30
0.0
 40
3.464285714285711
100
AcDbArc
 50
89.40931139718385
 51
270.5906886028162
  0
LINE
  5
2241
330
507C
100
AcDbEntity
  8
0
100
AcDbLine
 10
1614.025755272748
 20
1975.701389938469
 30
0.0
 11
1620.825785272747
 21
1975.703026501624
 31
0.0
  0
LINE
  5
2242
330
507C
100
AcDbEntity
  8
0
100
AcDbLine
 10
1614.025755272748
 20
1991.701390514906
 30
0.0
 11
1620.825785272747
 21
1991.703027078061
 31
0.0
  0
LINE
  5
2243
330
507C
100
AcDbEntity
  8
0
100
AcDbLine
 10
1576.366211970478
 20
1983.727934553528
 30
0.0
 11
1654.649586543267
 21
1983.727934553528
 31
0.0
  0
ARC
  5
2244
330
507C
100
AcDbEntity
  8
0
100
AcDbCircle
 10
1669.025755272748
 20
1954.727934553528
 30
0.0
 40
3.0
100
AcDbArc
 50
270.0
 51
0.0
  0
LINE
  5
2245
330
507C
100
AcDbEntity
  8
0
100
AcDbLine
 10
1669.025755272748
 20
1951.727934553528
 30
0.0
 11
1634.025755272748
 21
1951.727934553528
 31
0.0
  0
LINE
  5
2246
330
507C
100
AcDbEntity
  8
0
100
AcDbLine
 10
1671.025755272748
 20
1958.727934553528
 30
0.0
 11
1664.025755272747
 21
1958.727934553528
 31
0.0
  0
ARC
  5
2247
330
507C
100
AcDbEntity
  8
0
100
AcDbCircle
 10
1671.025755272748
 20
1957.727934553529
 30
0.0
 40
1.0
100
AcDbArc
 50
0.0
 51
90.0
  0
LINE
  5
2248
330
507C
100
AcDbEntity
  8
0
100
AcDbLine
 10
1672.025755272748
 20
1957.727934553529
 30
0.0
 11
1672.025755272748
 21
1954.727934553528
 31
0.0
  0
LINE
  5
2249
330
507C
100
AcDbEntity
  8
0
100
AcDbLine
 10
1651.025738272748
 20
1973.335581121238
 30
0.0
 11
1651.025738272748
 21
1994.120191121239
 31
0.0
  0
LINE
  5
224A
330
507C
100
AcDbEntity
  8
0
100
AcDbLine
 10
1620.825785272747
 20
1994.120234553528
 30
0.0
 11
1620.825785272747
 21
1973.335629553528
 31
0.0
  0
ARC
  5
224B
330
507C
100
AcDbEntity
  8
0
100
AcDbCircle
 10
1645.935289272747
 20
1973.335581121238
 30
0.0
 40
5.090450299999996
100
AcDbArc
 50
317.1166899999814
 51
42.88337000000292
  0
ARC
  5
224C
330
507C
100
AcDbEntity
  8
0
100
AcDbCircle
 10
1625.735306272748
 20
1973.335629553528
 30
0.0
 40
5.090450299999996
100
AcDbArc
 50
317.1166899999814
 51
42.88336199997806
  0
ARC
  5
224D
330
507C
100
AcDbEntity
  8
0
100
AcDbCircle
 10
1625.916234272748
 20
1973.335629553528
 30
0.0
 40
5.090450299999996
100
AcDbArc
 50
137.1166399999831
 51
222.8833200000159
  0
ARC
  5
224E
330
507C
100
AcDbEntity
  8
0
100
AcDbCircle
 10
1664.025755272747
 20
1965.727934553529
 30
0.0
 40
7.0
100
AcDbArc
 50
180.0
 51
270.0
  0
LINE
  5
224F
330
507C
100
AcDbEntity
  8
0
100
AcDbLine
 10
1649.665277272747
 20
1969.871491121239
 30
0.0
 11
1638.525755272748
 21
1969.871491121239
 31
0.0
  0
LINE
  5
2250
330
507C
100
AcDbEntity
  8
0
100
AcDbLine
 10
1634.025755272748
 20
1968.727934553528
 30
0.0
 11
1630.825755272747
 21
1968.727934553528
 31
0.0
  0
LINE
  5
2251
330
507C
100
AcDbEntity
  8
0
100
AcDbLine
 10
1622.186252272748
 20
1969.871540553528
 30
0.0
 11
1629.465288272748
 21
1969.871540553528
 31
0.0
  0
ARC
  5
2252
330
507C
100
AcDbEntity
  8
0
100
AcDbCircle
 10
1632.704575272748
 20
1983.727891121239
 30
0.0
 40
18.321183
100
AcDbArc
 50
337.7807100000108
 51
22.21932999999927
  0
ARC
  5
2253
330
507C
100
AcDbEntity
  8
0
100
AcDbCircle
 10
1639.146965272747
 20
1983.727934553528
 30
0.0
 40
18.321183
100
AcDbArc
 50
157.7807100000108
 51
202.2193299999993
  0
ARC
  5
2254
330
507C
100
AcDbEntity
  8
0
100
AcDbCircle
 10
1612.504582272748
 20
1983.727934553528
 30
0.0
 40
18.321183
100
AcDbArc
 50
337.7806800000009
 51
22.21929999997009
  0
LINE
  5
2255
330
507C
100
AcDbEntity
  8
0
100
AcDbLine
 10
1634.025755272748
 20
1975.227934553528
 30
0.0
 11
1638.525755272748
 21
1975.227934553528
 31
0.0
  0
LINE
  5
2256
330
507C
100
AcDbEntity
  8
0
100
AcDbLine
 10
1649.665277272747
 20
1976.799681121239
 30
0.0
 11
1638.525755272748
 21
1976.799681121239
 31
0.0
  0
LINE
  5
2257
330
507C
100
AcDbEntity
  8
0
100
AcDbLine
 10
1622.186246272747
 20
1976.799725553527
 30
0.0
 11
1629.465295272747
 21
1976.799725553527
 31
0.0
  0
LINE
  5
2258
330
507C
100
AcDbEntity
  8
0
100
AcDbLine
 10
1634.025755272747
 20
1992.227934553528
 30
0.0
 11
1638.525755272747
 21
1992.227934553528
 31
0.0
  0
LINE
  5
2259
330
507C
100
AcDbEntity
  8
0
100
AcDbLine
 10
1649.665277272747
 20
1990.656101121239
 30
0.0
 11
1638.525755272748
 21
1990.656101121239
 31
0.0
  0
LINE
  5
225A
330
507C
100
AcDbEntity
  8
0
100
AcDbLine
 10
1622.186246272747
 20
1990.656124553527
 30
0.0
 11
1629.465295272747
 21
1990.656124553527
 31
0.0
  0
LINE
  5
225B
330
507C
100
AcDbEntity
  8
0
100
AcDbLine
 10
1598.525755272747
 20
1951.727934553528
 30
0.0
 11
1598.525755272748
 21
1983.727934553527
 31
0.0
  0
LINE
  5
225C
330
507C
100
AcDbEntity
  8
0
100
AcDbLine
 10
1603.025755272747
 20
1951.727934553528
 30
0.0
 11
1603.025755272748
 21
1983.727934553527
 31
0.0
  0
LINE
  5
225D
330
507C
100
AcDbEntity
  8
0
100
AcDbLine
 10
1533.025755272747
 20
1951.727934553528
 30
0.0
 11
1603.025755272747
 21
1951.727934553528
 31
0.0
  0
ARC
  5
225E
330
507C
100
AcDbEntity
  8
0
100
AcDbCircle
 10
1557.725755272747
 20
1973.594003300847
 30
0.0
 40
2.0
100
AcDbArc
 50
0.0
 51
97.66225566075904
  0
ARC
  5
225F
330
507C
100
AcDbEntity
  8
0
100
AcDbCircle
 10
1557.725755272747
 20
1960.727934553528
 30
0.0
 40
2.0
100
AcDbArc
 50
270.0
 51
0.0
  0
ARC
  5
2260
330
507C
100
AcDbEntity
  8
0
100
AcDbCircle
 10
1557.725755272747
 20
1993.861865806209
 30
0.0
 40
2.0
100
AcDbArc
 50
262.3377443392409
 51
0.0
  0
LINE
  5
2261
330
507C
100
AcDbEntity
  8
0
100
AcDbLine
 10
1614.025755272748
 20
1963.727934553528
 30
0.0
 11
1614.025755272748
 21
1983.727934553527
 31
0.0
  0
LINE
  5
2262
330
507C
100
AcDbEntity
  8
0
100
AcDbLine
 10
1606.525755272747
 20
1962.227934553528
 30
0.0
 11
1606.525755272748
 21
1983.727934553528
 31
0.0
  0
LINE
  5
2263
330
507C
100
AcDbEntity
  8
0
100
AcDbLine
 10
1593.525755272747
 20
1963.71860730464
 30
0.0
 11
1593.525755272748
 21
1983.727934553527
 31
0.0
  0
LINE
  5
2264
330
507C
100
AcDbEntity
  8
0
100
AcDbLine
 10
1590.325755272747
 20
1963.71860730464
 30
0.0
 11
1590.325755272748
 21
1983.718386342491
 31
0.0
  0
LINE
  5
2265
330
507C
100
AcDbEntity
  8
0
100
AcDbLine
 10
1580.325755272747
 20
1973.335629708114
 30
0.0
 11
1580.325755272747
 21
1994.120239398941
 31
0.0
  0
ARC
  5
2266
330
507C
100
AcDbEntity
  8
0
100
AcDbCircle
 10
1583.790040987032
 20
1973.335629708114
 30
0.0
 40
3.464285714285711
100
AcDbArc
 50
89.40931139718385
 51
270.5906886028162
  0
LINE
  5
2267
330
507C
100
AcDbEntity
  8
0
100
AcDbLine
 10
1559.725755272747
 20
1960.727934553528
 30
0.0
 11
1559.725755272747
 21
1973.594003300847
 31
0.0
  0
LINE
  5
2268
330
507C
100
AcDbEntity
  8
0
100
AcDbLine
 10
1614.025755272748
 20
1962.227934553528
 30
0.0
 11
1614.025755272748
 21
1963.727934553528
 31
0.0
  0
LINE
  5
2269
330
507C
100
AcDbEntity
  8
0
100
AcDbLine
 10
1593.525755272747
 20
1963.71860730464
 30
0.0
 11
1598.525755272747
 21
1963.719322460744
 31
0.0
  0
LINE
  5
226A
330
507C
100
AcDbEntity
  8
0
100
AcDbLine
 10
1590.325755272747
 20
1969.871528092976
 30
0.0
 11
1583.825755272747
 21
1969.871528092976
 31
0.0
  0
LINE
  5
226B
330
507C
100
AcDbEntity
  8
0
100
AcDbLine
 10
1590.325755272747
 20
1963.71860730464
 30
0.0
 11
1593.525755272747
 21
1963.71860730464
 31
0.0
  0
LINE
  5
226C
330
507C
100
AcDbEntity
  8
0
100
AcDbLine
 10
1606.525755272747
 20
1962.227934553528
 30
0.0
 11
1614.025755272748
 21
1962.227934553528
 31
0.0
  0
LINE
  5
226D
330
507C
100
AcDbEntity
  8
0
100
AcDbLine
 10
1606.525755272748
 20
1971.927934553528
 30
0.0
 11
1603.025755272748
 21
1971.927934553528
 31
0.0
  0
ARC
  5
226E
330
507C
100
AcDbEntity
  8
0
100
AcDbCircle
 10
1588.93289812989
 20
1983.727934553528
 30
0.0
 40
8.607142857142846
100
AcDbArc
 50
126.395879198099
 51
233.604120801901
  0
LINE
  5
226F
330
507C
100
AcDbEntity
  8
0
100
AcDbLine
 10
1590.325755272747
 20
1976.799731323253
 30
0.0
 11
1583.825755272747
 21
1976.799731323253
 31
0.0
  0
LINE
  5
2270
330
507C
100
AcDbEntity
  8
0
100
AcDbLine
 10
1590.325755272747
 20
1990.656137783803
 30
0.0
 11
1583.825755272747
 21
1990.656137783803
 31
0.0
  0
ARC
  5
2271
330
507C
100
AcDbEntity
  8
0
100
AcDbCircle
 10
1559.725755272747
 20
1958.727934553528
 30
0.0
 40
17.0
100
AcDbArc
 50
97.66225566075904
 51
172.3377443392413
  0
LINE
  5
2272
330
507C
100
AcDbEntity
  8
0
100
AcDbLine
 10
1557.725755272747
 20
1958.727934553528
 30
0.0
 11
1544.859686525427
 21
1958.727934553528
 31
0.0
  0
ARC
  5
2273
330
507C
100
AcDbEntity
  8
0
100
AcDbCircle
 10
1544.859686525427
 20
1960.727934553528
 30
0.0
 40
2.0
100
AcDbArc
 50
172.3377443392413
 51
270.0
  0
LINE
  5
227F
330
507C
100
AcDbEntity
  8
0
100
AcDbLine
 10
1672.025755272748
 20
2018.727934553529
 30
0.0
 11
1642.525755272747
 21
2018.727934553529
 31
0.0
  0
LINE
  5
2280
330
507C
100
AcDbEntity
  8
0
100
AcDbLine
 10
1672.025755272748
 20
2014.227934553529
 30
0.0
 11
1642.525755272747
 21
2014.227934553529
 31
0.0
  0
LINE
  5
2281
330
507C
100
AcDbEntity
  8
0
100
AcDbLine
 10
1671.025755272748
 20
2003.727934553529
 30
0.0
 11
1664.025755272747
 21
2003.727934553529
 31
0.0
  0
ARC
  5
2282
330
507C
100
AcDbEntity
  8
0
100
AcDbCircle
 10
1671.025755272748
 20
2004.727934553529
 30
0.0
 40
1.0
100
AcDbArc
 50
270.0
 51
0.0
  0
ARC
  5
2283
330
507C
100
AcDbEntity
  8
0
100
AcDbCircle
 10
1642.525755272747
 20
2010.227934553529
 30
0.0
 40
8.5
100
AcDbArc
 50
90.0
 51
180.0
  0
LINE
  5
2284
330
507C
100
AcDbEntity
  8
0
100
AcDbLine
 10
1649.665277272747
 20
1997.584281121238
 30
0.0
 11
1638.525755272748
 21
1997.584281121238
 31
0.0
  0
LINE
  5
2285
330
507C
100
AcDbEntity
  8
0
100
AcDbLine
 10
1634.025755272747
 20
1998.727934553528
 30
0.0
 11
1630.825755272747
 21
1998.727934553528
 31
0.0
  0
LINE
  5
2286
330
507C
100
AcDbEntity
  8
0
100
AcDbLine
 10
1622.186246272747
 20
1997.584314553527
 30
0.0
 11
1629.465295272747
 21
1997.584314553527
 31
0.0
  0
ARC
  5
2287
330
507C
100
AcDbEntity
  8
0
100
AcDbCircle
 10
1642.525755272747
 20
2010.227934553528
 30
0.0
 40
4.0
100
AcDbArc
 50
90.0
 51
180.0
  0
ARC
  5
2288
330
507C
100
AcDbEntity
  8
0
100
AcDbCircle
 10
1664.025755272747
 20
1996.727934553529
 30
0.0
 40
7.0
100
AcDbArc
 50
90.0
 51
180.0
  0
ARC
  5
2289
330
507C
100
AcDbEntity
  8
0
100
AcDbCircle
 10
1557.725755272747
 20
2006.727934553529
 30
0.0
 40
2.0
100
AcDbArc
 50
0.0
 51
90.0
  0
LINE
  5
228A
330
507C
100
AcDbEntity
  8
0
100
AcDbLine
 10
1533.025755272747
 20
2018.727934553529
 30
0.0
 11
1595.525755272748
 21
2018.727934553529
 31
0.0
  0
LINE
  5
228B
330
507C
100
AcDbEntity
  8
0
100
AcDbLine
 10
1533.025755272747
 20
2014.227934553529
 30
0.0
 11
1595.525755272748
 21
2014.227934553529
 31
0.0
  0
ARC
  5
228C
330
507C
100
AcDbEntity
  8
0
100
AcDbCircle
 10
1595.525755272748
 20
2011.227934553528
 30
0.0
 40
7.5
100
AcDbArc
 50
0.0
 51
90.0
  0
LINE
  5
228D
330
507C
100
AcDbEntity
  8
0
100
AcDbLine
 10
1593.525755272747
 20
2003.718608384364
 30
0.0
 11
1598.525755272747
 21
2003.719323540468
 31
0.0
  0
LINE
  5
228E
330
507C
100
AcDbEntity
  8
0
100
AcDbLine
 10
1606.525755272747
 20
2005.227934553528
 30
0.0
 11
1614.025755272748
 21
2005.227934553528
 31
0.0
  0
LINE
  5
228F
330
507C
100
AcDbEntity
  8
0
100
AcDbLine
 10
1614.025755272748
 20
2003.727934553528
 30
0.0
 11
1614.025755272748
 21
2005.227934553528
 31
0.0
  0
LINE
  5
2290
330
507C
100
AcDbEntity
  8
0
100
AcDbLine
 10
1590.325755272747
 20
2003.718608384364
 30
0.0
 11
1593.525755272747
 21
2003.718608384364
 31
0.0
  0
LINE
  5
2291
330
507C
100
AcDbEntity
  8
0
100
AcDbLine
 10
1583.825755272747
 20
1997.584341014079
 30
0.0
 11
1590.325755272747
 21
1997.584341014079
 31
0.0
  0
ARC
  5
2292
330
507C
100
AcDbEntity
  8
0
100
AcDbCircle
 10
1595.525755272748
 20
2011.227934553528
 30
0.0
 40
3.0
100
AcDbArc
 50
0.0
 51
90.0
  0
LINE
  5
2293
330
507C
100
AcDbEntity
  8
0
100
AcDbLine
 10
1606.525755272747
 20
1995.527934553528
 30
0.0
 11
1603.025755272748
 21
1995.527934553528
 31
0.0
  0
LINE
  5
2294
330
507C
100
AcDbEntity
  8
0
100
AcDbLine
 10
1557.725755272747
 20
2008.727934553529
 30
0.0
 11
1544.859686525427
 21
2008.727934553529
 31
0.0
  0
ARC
  5
2295
330
507C
100
AcDbEntity
  8
0
100
AcDbCircle
 10
1544.859686525427
 20
2006.727934553529
 30
0.0
 40
2.0
100
AcDbArc
 50
90.0
 51
187.6622556607584
  0
LINE
  5
22C2
330
507C
100
AcDbEntity
  8
0
100
AcDbLine
 10
1642.025755272748
 20
2171.727869103027
 30
0.0
 11
1642.025755272748
 21
2334.742587728788
 31
0.0
  0
LINE
  5
22C3
330
507C
100
AcDbEntity
  8
0
100
AcDbLine
 10
1642.025755272749
 20
2018.713215927768
 30
0.0
 11
1642.025755272748
 21
2263.727869103027
 31
0.0
  0
LINE
  5
22D9
330
507C
100
AcDbEntity
  8
0
100
AcDbLine
 10
1598.525755272747
 20
2401.727910851079
 30
0.0
 11
1598.525755272748
 21
2369.72791085108
 31
0.0
  0
LINE
  5
22DA
330
507C
100
AcDbEntity
  8
0
100
AcDbLine
 10
1603.025755272747
 20
2401.727910851079
 30
0.0
 11
1603.025755272748
 21
2369.72791085108
 31
0.0
  0
LINE
  5
22DB
330
507C
100
AcDbEntity
  8
0
100
AcDbLine
 10
1672.025755272748
 20
2395.727910851078
 30
0.0
 11
1672.025755272748
 21
2398.727910851079
 31
0.0
  0
LINE
  5
22DC
330
507C
100
AcDbEntity
  8
0
100
AcDbLine
 10
1638.525755272748
 20
2401.727910851079
 30
0.0
 11
1638.525755272747
 21
2343.227910851078
 31
0.0
  0
LINE
  5
22DD
330
507C
100
AcDbEntity
  8
0
100
AcDbLine
 10
1634.025755272748
 20
2401.727910851079
 30
0.0
 11
1634.025755272747
 21
2343.227910851078
 31
0.0
  0
LINE
  5
22DE
330
507C
100
AcDbEntity
  8
0
100
AcDbLine
 10
1533.025755272747
 20
2334.727910851078
 30
0.0
 11
1533.025755272747
 21
2401.727910851079
 31
0.0
  0
LINE
  5
22DF
330
507C
100
AcDbEntity
  8
0
100
AcDbLine
 10
1576.366211970478
 20
2369.72791085108
 30
0.0
 11
1654.649586543267
 21
2369.72791085108
 31
0.0
  0
LINE
  5
22E0
330
507C
100
AcDbEntity
  8
0
100
AcDbLine
 10
1614.025755272748
 20
2377.754455466138
 30
0.0
 11
1620.825785272747
 21
2377.752818902983
 31
0.0
  0
LINE
  5
22E1
330
507C
100
AcDbEntity
  8
0
100
AcDbLine
 10
1614.025755272748
 20
2361.7544548897
 30
0.0
 11
1620.825785272747
 21
2361.752818326545
 31
0.0
  0
LINE
  5
22E2
330
507C
100
AcDbEntity
  8
0
100
AcDbLine
 10
1657.025755272747
 20
2387.727910851078
 30
0.0
 11
1657.025755272747
 21
2356.727910851077
 31
0.0
  0
LINE
  5
22E3
330
507C
100
AcDbEntity
  8
0
100
AcDbLine
 10
1672.025755272748
 20
2334.727910851078
 30
0.0
 11
1672.025755272748
 21
2395.427910851076
 31
0.0
  0
LINE
  5
22E4
330
507C
100
AcDbEntity
  8
0
100
AcDbLine
 10
1630.825755272747
 20
2384.727910851077
 30
0.0
 11
1630.825755272747
 21
2354.727910851079
 31
0.0
  0
ARC
  5
22E5
330
507C
100
AcDbEntity
  8
0
100
AcDbCircle
 10
1645.935289272747
 20
2359.335654283367
 30
0.0
 40
5.090450299999996
100
AcDbArc
 50
317.116679999984
 51
42.8833600000168
  0
ARC
  5
22E6
330
507C
100
AcDbEntity
  8
0
100
AcDbCircle
 10
1625.735306272748
 20
2359.335610851079
 30
0.0
 40
5.090450299999996
100
AcDbArc
 50
317.1166830000201
 51
42.8833600000168
  0
ARC
  5
22E7
330
507C
100
AcDbEntity
  8
0
100
AcDbCircle
 10
1625.916234272748
 20
2359.335610851079
 30
0.0
 40
5.090450299999996
100
AcDbArc
 50
137.1166299999971
 51
222.8833100000186
  0
LINE
  5
22E8
330
507C
100
AcDbEntity
  8
0
100
AcDbLine
 10
1671.025755272748
 20
2349.727910851077
 30
0.0
 11
1664.025755272747
 21
2349.727910851077
 31
0.0
  0
LINE
  5
22E9
330
507C
100
AcDbEntity
  8
0
100
AcDbLine
 10
1672.025755272748
 20
2334.727910851078
 30
0.0
 11
1642.525755272747
 21
2334.727910851078
 31
0.0
  0
LINE
  5
22EA
330
507C
100
AcDbEntity
  8
0
100
AcDbLine
 10
1672.025755272748
 20
2339.227910851077
 30
0.0
 11
1642.525755272747
 21
2339.227910851077
 31
0.0
  0
ARC
  5
22EB
330
507C
100
AcDbEntity
  8
0
100
AcDbCircle
 10
1671.025755272748
 20
2348.727910851078
 30
0.0
 40
1.0
100
AcDbArc
 50
0.0
 51
90.0
  0
ARC
  5
22EC
330
507C
100
AcDbEntity
  8
0
100
AcDbCircle
 10
1642.525755272747
 20
2343.227910851078
 30
0.0
 40
8.5
100
AcDbArc
 50
180.0
 51
270.0
  0
LINE
  5
22ED
330
507C
100
AcDbEntity
  8
0
100
AcDbLine
 10
1622.186246272747
 20
2355.871530851079
 30
0.0
 11
1629.465295272747
 21
2355.871530851079
 31
0.0
  0
ARC
  5
22EE
330
507C
100
AcDbEntity
  8
0
100
AcDbCircle
 10
1642.525755272747
 20
2343.227910851078
 30
0.0
 40
4.0
100
AcDbArc
 50
180.0
 51
270.0
  0
LINE
  5
22EF
330
507C
100
AcDbEntity
  8
0
100
AcDbLine
 10
1649.665277272747
 20
2355.871564283368
 30
0.0
 11
1638.525755272748
 21
2355.871564283368
 31
0.0
  0
LINE
  5
22F0
330
507C
100
AcDbEntity
  8
0
100
AcDbLine
 10
1634.025755272747
 20
2354.727910851079
 30
0.0
 11
1630.825755272747
 21
2354.727910851079
 31
0.0
  0
ARC
  5
22F1
330
507C
100
AcDbEntity
  8
0
100
AcDbCircle
 10
1664.025755272747
 20
2356.727910851077
 30
0.0
 40
7.0
100
AcDbArc
 50
180.0
 51
270.0
  0
LINE
  5
22F2
330
507C
100
AcDbEntity
  8
0
100
AcDbLine
 10
1671.025755272748
 20
2394.727910851077
 30
0.0
 11
1664.025755272747
 21
2394.727910851077
 31
0.0
  0
ARC
  5
22F3
330
507C
100
AcDbEntity
  8
0
100
AcDbCircle
 10
1671.025755272748
 20
2395.727910851078
 30
0.0
 40
1.0
100
AcDbArc
 50
270.0
 51
0.0
  0
LINE
  5
22F4
330
507C
100
AcDbEntity
  8
0
100
AcDbLine
 10
1651.025738272748
 20
2380.120264283368
 30
0.0
 11
1651.025738272748
 21
2359.335654283367
 31
0.0
  0
ARC
  5
22F5
330
507C
100
AcDbEntity
  8
0
100
AcDbCircle
 10
1645.935289272747
 20
2380.120264283368
 30
0.0
 40
5.090450299999996
100
AcDbArc
 50
317.1166299999971
 51
42.88331000001861
  0
ARC
  5
22F6
330
507C
100
AcDbEntity
  8
0
100
AcDbCircle
 10
1625.735306272748
 20
2380.120215851079
 30
0.0
 40
5.090450299999996
100
AcDbArc
 50
317.1166380000217
 51
42.88331000001861
  0
LINE
  5
22F7
330
507C
100
AcDbEntity
  8
0
100
AcDbLine
 10
1620.825785272747
 20
2359.335610851079
 30
0.0
 11
1620.825785272747
 21
2380.120215851079
 31
0.0
  0
ARC
  5
22F8
330
507C
100
AcDbEntity
  8
0
100
AcDbCircle
 10
1625.916234272748
 20
2380.120215851079
 30
0.0
 40
5.090450299999996
100
AcDbArc
 50
137.1166799999838
 51
222.8833600000168
  0
LINE
  5
22F9
330
507C
100
AcDbEntity
  8
0
100
AcDbLine
 10
1622.186246272747
 20
2376.656119851078
 30
0.0
 11
1629.465295272747
 21
2376.656119851078
 31
0.0
  0
LINE
  5
22FA
330
507C
100
AcDbEntity
  8
0
100
AcDbLine
 10
1622.186246272747
 20
2362.799720851079
 30
0.0
 11
1629.465295272747
 21
2362.799720851079
 31
0.0
  0
ARC
  5
22FB
330
507C
100
AcDbEntity
  8
0
100
AcDbCircle
 10
1632.704575272748
 20
2369.727954283368
 30
0.0
 40
18.321183
100
AcDbArc
 50
337.7806700000008
 51
22.21928999998913
  0
ARC
  5
22FC
330
507C
100
AcDbEntity
  8
0
100
AcDbCircle
 10
1612.504582272748
 20
2369.72791085108
 30
0.0
 40
18.321183
100
AcDbArc
 50
337.7807000000299
 51
22.21931999999901
  0
LINE
  5
22FD
330
507C
100
AcDbEntity
  8
0
100
AcDbLine
 10
1649.665277272747
 20
2376.656164283367
 30
0.0
 11
1638.525755272748
 21
2376.656164283367
 31
0.0
  0
LINE
  5
22FE
330
507C
100
AcDbEntity
  8
0
100
AcDbLine
 10
1649.665277272747
 20
2362.799744283368
 30
0.0
 11
1638.525755272748
 21
2362.799744283368
 31
0.0
  0
LINE
  5
22FF
330
507C
100
AcDbEntity
  8
0
100
AcDbLine
 10
1634.025755272747
 20
2361.227910851078
 30
0.0
 11
1638.525755272747
 21
2361.227910851078
 31
0.0
  0
ARC
  5
2300
330
507C
100
AcDbEntity
  8
0
100
AcDbCircle
 10
1639.146965272747
 20
2369.72791085108
 30
0.0
 40
18.321183
100
AcDbArc
 50
157.7806700000007
 51
202.2192899999891
  0
LINE
  5
2301
330
507C
100
AcDbEntity
  8
0
100
AcDbLine
 10
1634.025755272748
 20
2378.227910851077
 30
0.0
 11
1638.525755272748
 21
2378.227910851077
 31
0.0
  0
LINE
  5
2302
330
507C
100
AcDbEntity
  8
0
100
AcDbLine
 10
1622.186252272748
 20
2383.584304851079
 30
0.0
 11
1629.465288272748
 21
2383.584304851079
 31
0.0
  0
ARC
  5
2303
330
507C
100
AcDbEntity
  8
0
100
AcDbCircle
 10
1664.025755272747
 20
2387.727910851078
 30
0.0
 40
7.0
100
AcDbArc
 50
90.0
 51
180.0
  0
LINE
  5
2304
330
507C
100
AcDbEntity
  8
0
100
AcDbLine
 10
1649.665277272747
 20
2383.584354283367
 30
0.0
 11
1638.525755272748
 21
2383.584354283367
 31
0.0
  0
LINE
  5
2305
330
507C
100
AcDbEntity
  8
0
100
AcDbLine
 10
1634.025755272748
 20
2384.727910851077
 30
0.0
 11
1630.825755272747
 21
2384.727910851077
 31
0.0
  0
LINE
  5
2306
330
507C
100
AcDbEntity
  8
0
100
AcDbLine
 10
1590.325755272747
 20
2369.737459062116
 30
0.0
 11
1590.325755272747
 21
2349.737237020243
 31
0.0
  0
ARC
  5
2307
330
507C
100
AcDbEntity
  8
0
100
AcDbCircle
 10
1583.790040987032
 20
2359.335606005666
 30
0.0
 40
3.464285714285711
100
AcDbArc
 50
89.40931139718385
 51
270.5906886028162
  0
ARC
  5
2308
330
507C
100
AcDbEntity
  8
0
100
AcDbCircle
 10
1559.725755272747
 20
2344.727910851077
 30
0.0
 40
17.0
100
AcDbArc
 50
97.66225566075904
 51
172.3377443392413
  0
LINE
  5
2309
330
507C
100
AcDbEntity
  8
0
100
AcDbLine
 10
1614.025755272748
 20
2369.72791085108
 30
0.0
 11
1614.025755272748
 21
2349.727910851079
 31
0.0
  0
LINE
  5
230A
330
507C
100
AcDbEntity
  8
0
100
AcDbLine
 10
1606.525755272747
 20
2369.72791085108
 30
0.0
 11
1606.525755272747
 21
2348.227910851079
 31
0.0
  0
LINE
  5
230B
330
507C
100
AcDbEntity
  8
0
100
AcDbLine
 10
1603.025755272747
 20
2369.72791085108
 30
0.0
 11
1603.025755272748
 21
2342.227910851079
 31
0.0
  0
LINE
  5
230C
330
507C
100
AcDbEntity
  8
0
100
AcDbLine
 10
1598.525755272747
 20
2369.72791085108
 30
0.0
 11
1598.525755272748
 21
2342.227910851079
 31
0.0
  0
LINE
  5
230D
330
507C
100
AcDbEntity
  8
0
100
AcDbLine
 10
1593.525755272747
 20
2369.72791085108
 30
0.0
 11
1593.525755272747
 21
2349.737237020243
 31
0.0
  0
LINE
  5
230E
330
507C
100
AcDbEntity
  8
0
100
AcDbLine
 10
1559.725755272747
 20
2346.727910851078
 30
0.0
 11
1559.725755272747
 21
2359.593979598397
 31
0.0
  0
LINE
  5
230F
330
507C
100
AcDbEntity
  8
0
100
AcDbLine
 10
1533.025755272747
 20
2334.727910851078
 30
0.0
 11
1595.525755272748
 21
2334.727910851078
 31
0.0
  0
LINE
  5
2310
330
507C
100
AcDbEntity
  8
0
100
AcDbLine
 10
1533.025755272747
 20
2339.227910851077
 30
0.0
 11
1595.525755272748
 21
2339.227910851077
 31
0.0
  0
ARC
  5
2311
330
507C
100
AcDbEntity
  8
0
100
AcDbCircle
 10
1557.725755272747
 20
2346.727910851078
 30
0.0
 40
2.0
100
AcDbArc
 50
270.0
 51
0.0
  0
ARC
  5
2312
330
507C
100
AcDbEntity
  8
0
100
AcDbCircle
 10
1595.525755272748
 20
2342.227910851079
 30
0.0
 40
7.5
100
AcDbArc
 50
270.0
 51
0.0
  0
ARC
  5
2313
330
507C
100
AcDbEntity
  8
0
100
AcDbCircle
 10
1595.525755272748
 20
2342.227910851079
 30
0.0
 40
3.0
100
AcDbArc
 50
270.0
 51
0.0
  0
LINE
  5
2314
330
507C
100
AcDbEntity
  8
0
100
AcDbLine
 10
1593.525755272747
 20
2349.737237020243
 30
0.0
 11
1598.525755272747
 21
2349.736521864138
 31
0.0
  0
LINE
  5
2315
330
507C
100
AcDbEntity
  8
0
100
AcDbLine
 10
1606.525755272747
 20
2348.227910851079
 30
0.0
 11
1614.025755272748
 21
2348.227910851079
 31
0.0
  0
LINE
  5
2316
330
507C
100
AcDbEntity
  8
0
100
AcDbLine
 10
1614.025755272748
 20
2349.727910851079
 30
0.0
 11
1614.025755272748
 21
2348.227910851079
 31
0.0
  0
LINE
  5
2317
330
507C
100
AcDbEntity
  8
0
100
AcDbLine
 10
1590.325755272747
 20
2349.737237020243
 30
0.0
 11
1593.525755272747
 21
2349.737237020243
 31
0.0
  0
LINE
  5
2318
330
507C
100
AcDbEntity
  8
0
100
AcDbLine
 10
1583.825755272747
 20
2355.871504390528
 30
0.0
 11
1590.325755272747
 21
2355.871504390528
 31
0.0
  0
LINE
  5
2319
330
507C
100
AcDbEntity
  8
0
100
AcDbLine
 10
1557.725755272747
 20
2344.727910851077
 30
0.0
 11
1544.859686525427
 21
2344.727910851077
 31
0.0
  0
ARC
  5
231A
330
507C
100
AcDbEntity
  8
0
100
AcDbCircle
 10
1544.859686525427
 20
2346.727910851078
 30
0.0
 40
2.0
100
AcDbArc
 50
172.3377443392413
 51
270.0
  0
ARC
  5
231B
330
507C
100
AcDbEntity
  8
0
100
AcDbCircle
 10
1557.725755272747
 20
2392.727910851077
 30
0.0
 40
2.0
100
AcDbArc
 50
0.0
 51
90.0
  0
ARC
  5
231C
330
507C
100
AcDbEntity
  8
0
100
AcDbCircle
 10
1557.725755272747
 20
2379.861842103759
 30
0.0
 40
2.0
100
AcDbArc
 50
262.3377443392409
 51
0.0
  0
ARC
  5
231D
330
507C
100
AcDbEntity
  8
0
100
AcDbCircle
 10
1557.725755272747
 20
2359.593979598397
 30
0.0
 40
2.0
100
AcDbArc
 50
0.0
 51
97.66225566075904
  0
LINE
  5
231E
330
507C
100
AcDbEntity
  8
0
100
AcDbLine
 10
1580.325755272747
 20
2380.120215696492
 30
0.0
 11
1580.325755272747
 21
2359.335606005666
 31
0.0
  0
LINE
  5
231F
330
507C
100
AcDbEntity
  8
0
100
AcDbLine
 10
1614.025755272748
 20
2389.727910851078
 30
0.0
 11
1614.025755272748
 21
2369.72791085108
 31
0.0
  0
LINE
  5
2320
330
507C
100
AcDbEntity
  8
0
100
AcDbLine
 10
1606.525755272747
 20
2391.227910851076
 30
0.0
 11
1606.525755272748
 21
2369.72791085108
 31
0.0
  0
LINE
  5
2321
330
507C
100
AcDbEntity
  8
0
100
AcDbLine
 10
1593.525755272747
 20
2389.737238099967
 30
0.0
 11
1593.525755272748
 21
2369.72791085108
 31
0.0
  0
LINE
  5
2322
330
507C
100
AcDbEntity
  8
0
100
AcDbLine
 10
1590.325755272747
 20
2389.737238099967
 30
0.0
 11
1590.325755272748
 21
2369.737459062116
 31
0.0
  0
ARC
  5
2323
330
507C
100
AcDbEntity
  8
0
100
AcDbCircle
 10
1583.790040987032
 20
2380.120215696492
 30
0.0
 40
3.464285714285711
100
AcDbArc
 50
89.40931139718385
 51
270.5906886028162
  0
LINE
  5
2324
330
507C
100
AcDbEntity
  8
0
100
AcDbLine
 10
1606.525755272747
 20
2357.92791085108
 30
0.0
 11
1603.025755272748
 21
2357.92791085108
 31
0.0
  0
ARC
  5
2325
330
507C
100
AcDbEntity
  8
0
100
AcDbCircle
 10
1588.93289812989
 20
2369.72791085108
 30
0.0
 40
8.607142857142846
100
AcDbArc
 50
126.395879198099
 51
233.604120801901
  0
LINE
  5
2326
330
507C
100
AcDbEntity
  8
0
100
AcDbLine
 10
1590.325755272747
 20
2376.656114081354
 30
0.0
 11
1583.825755272747
 21
2376.656114081354
 31
0.0
  0
LINE
  5
2327
330
507C
100
AcDbEntity
  8
0
100
AcDbLine
 10
1590.325755272747
 20
2362.799707620803
 30
0.0
 11
1583.825755272747
 21
2362.799707620803
 31
0.0
  0
LINE
  5
2328
330
507C
100
AcDbEntity
  8
0
100
AcDbLine
 10
1614.025755272748
 20
2391.227910851076
 30
0.0
 11
1614.025755272748
 21
2389.727910851078
 31
0.0
  0
LINE
  5
2329
330
507C
100
AcDbEntity
  8
0
100
AcDbLine
 10
1593.525755272747
 20
2389.737238099967
 30
0.0
 11
1598.525755272747
 21
2389.736522943862
 31
0.0
  0
LINE
  5
232A
330
507C
100
AcDbEntity
  8
0
100
AcDbLine
 10
1590.325755272747
 20
2383.584317311631
 30
0.0
 11
1583.825755272747
 21
2383.584317311631
 31
0.0
  0
LINE
  5
232B
330
507C
100
AcDbEntity
  8
0
100
AcDbLine
 10
1590.325755272747
 20
2389.737238099967
 30
0.0
 11
1593.525755272747
 21
2389.737238099967
 31
0.0
  0
LINE
  5
232C
330
507C
100
AcDbEntity
  8
0
100
AcDbLine
 10
1606.525755272747
 20
2391.227910851076
 30
0.0
 11
1614.025755272748
 21
2391.227910851076
 31
0.0
  0
LINE
  5
232D
330
507C
100
AcDbEntity
  8
0
100
AcDbLine
 10
1606.525755272748
 20
2381.527910851078
 30
0.0
 11
1603.025755272748
 21
2381.527910851078
 31
0.0
  0
LINE
  5
232E
330
507C
100
AcDbEntity
  8
0
100
AcDbLine
 10
1559.725755272747
 20
2392.727910851077
 30
0.0
 11
1559.725755272747
 21
2379.861842103759
 31
0.0
  0
ARC
  5
232F
330
507C
100
AcDbEntity
  8
0
100
AcDbCircle
 10
1559.725755272747
 20
2394.727910851077
 30
0.0
 40
17.0
100
AcDbArc
 50
187.6622556607584
 51
262.3377443392409
  0
LINE
  5
2330
330
507C
100
AcDbEntity
  8
0
100
AcDbLine
 10
1557.725755272747
 20
2394.727910851077
 30
0.0
 11
1544.859686525427
 21
2394.727910851077
 31
0.0
  0
ARC
  5
2331
330
507C
100
AcDbEntity
  8
0
100
AcDbCircle
 10
1544.859686525427
 20
2392.727910851077
 30
0.0
 40
2.0
100
AcDbArc
 50
90.0
 51
187.6622556607584
  0
ARC
  5
2332
330
507C
100
AcDbEntity
  8
0
100
AcDbCircle
 10
1669.025755272748
 20
2398.727910851079
 30
0.0
 40
3.0
100
AcDbArc
 50
0.0
 51
90.0
  0
LINE
  5
2333
330
507C
100
AcDbEntity
  8
0
100
AcDbLine
 10
1669.025755272748
 20
2401.727910851079
 30
0.0
 11
1634.025755272748
 21
2401.727910851079
 31
0.0
  0
LINE
  5
2334
330
507C
100
AcDbEntity
  8
0
100
AcDbLine
 10
1533.025755272747
 20
2401.727910851079
 30
0.0
 11
1603.025755272747
 21
2401.727910851079
 31
0.0
  0
CIRCLE
  5
2336
330
507C
100
AcDbEntity
  8
0
100
AcDbCircle
 10
524.9999554235244
 20
2381.728026394978
 30
0.0
 40
8.0
  0
CIRCLE
  5
2337
330
507C
100
AcDbEntity
  8
0
100
AcDbCircle
 10
1124.999955423524
 20
2381.727960450517
 30
0.0
 40
8.0
  0
CIRCLE
  5
2338
330
507C
100
AcDbEntity
  8
0
100
AcDbCircle
 10
524.9999554235244
 20
1971.727960361298
 30
0.0
 40
8.0
  0
CIRCLE
  5
2339
330
507C
100
AcDbEntity
  8
0
100
AcDbCircle
 10
1124.999955423524
 20
1971.728026305759
 30
0.0
 40
8.0
  0
LINE
  5
2381
330
507C
100
AcDbEntity
  8
0
100
AcDbLine
 10
416.9852813742394
 20
1571.999999999999
 30
0.0
 11
434.9999554231408
 21
1571.999999999999
 31
0.0
  0
LINE
  5
26DE
330
507C
100
AcDbEntity
  8
0
100
AcDbLine
 10
1220.000000000384
 20
1571.999999999999
 30
0.0
 11
1233.014653175259
 21
1571.999999999999
 31
0.0
  0
LINE
  5
26DF
330
507C
100
AcDbEntity
  8
0
100
AcDbLine
 10
524.9999345494982
 20
1571.999999999999
 30
0.0
 11
1159.999999999616
 21
1571.999999999999
 31
0.0
  0
LINE
  5
3D2B
330
507C
100
AcDbEntity
  8
0
100
AcDbLine
 10
484.9999554235246
 20
2341.72803118211
 30
0.0
 11
484.9999954434694
 21
2011.727965089859
 31
0.0
  0
LINE
  5
3D2D
330
507C
100
AcDbEntity
  8
0
100
AcDbLine
 10
564.9999554235246
 20
2341.72803118211
 30
0.0
 11
564.9999273528158
 21
2011.727965089859
 31
0.0
  0
LINE
  5
3D2F
330
507C
100
AcDbEntity
  8
0
100
AcDbLine
 10
1165.000020874026
 20
2341.72803118211
 30
0.0
 11
1164.999992803318
 21
2011.727965089859
 31
0.0
  0
LINE
  5
3D31
330
507C
100
AcDbEntity
  8
0
100
AcDbLine
 10
1085.000020874026
 20
2341.72803118211
 30
0.0
 11
1085.000060893971
 21
2011.727965089859
 31
0.0
  0
LINE
  5
40D0
330
507C
100
AcDbEntity
  8
0
100
AcDbLine
 10
80.0
 20
2808.0
 30
0.0
 11
1880.0
 21
2808.0
 31
0.0
  0
LINE
  5
40D2
330
507C
100
AcDbEntity
  8
0
100
AcDbLine
 10
80.0
 20
2808.0
 30
0.0
 11
80.0
 21
-0.0000000000000089
 31
0.0
  0
LINE
  5
41A1
330
507C
100
AcDbEntity
  8
0
100
AcDbLine
 10
1880.0
 20
2808.0
 30
0.0
 11
1880.0
 21
-0.000000000000453
 31
0.0
  0
LINE
  5
41AE
330
507C
100
AcDbEntity
  8
0
100
AcDbLine
 10
80.0
 20
0.0
 30
0.0
 11
1880.0
 21
0.0
 31
0.0
  0
LINE
  5
41AF
330
507C
100
AcDbEntity
  8
0
100
AcDbLine
 10
80.0
 20
0.0
 30
0.0
 11
1880.0
 21
0.0
 31
0.0
  0
LINE
  5
451D
330
507C
100
AcDbEntity
  8
0
100
AcDbLine
 10
1154.412352320103
 20
1963.684601187719
 30
0.0
 11
1226.594789657134
 21
1963.684601187719
 31
0.0
  0
LINE
  5
451E
330
507C
100
AcDbEntity
  8
0
100
AcDbLine
 10
1154.412352320103
 20
1983.684601187719
 30
0.0
 11
1226.594789657134
 21
1983.684601187719
 31
0.0
  0
LINE
  5
451F
330
507C
100
AcDbEntity
  8
0
100
AcDbLine
 10
1154.412352320103
 20
1983.684601187719
 30
0.0
 11
1154.412352320103
 21
1963.684601187719
 31
0.0
  0
LINE
  5
4520
330
507C
100
AcDbEntity
  8
0
100
AcDbLine
 10
1226.594789657134
 20
1983.684601187718
 30
0.0
 11
1226.594789657134
 21
1963.684601187718
 31
0.0
  0
ARC
  5
46DA
330
507C
100
AcDbEntity
  8
0
100
AcDbCircle
 10
499.9999554229241
 20
1601.499999999608
 30
0.0
 40
1.0
100
AcDbArc
 50
270.0
 51
90.0
  0
ARC
  5
46DB
330
507C
100
AcDbEntity
  8
0
100
AcDbCircle
 10
489.9999554229244
 20
1623.243557214409
 30
0.0
 40
10.0
100
AcDbArc
 50
0.0
 51
14.32271997981844
  0
LINE
  5
46DC
330
507C
100
AcDbEntity
  8
0
100
AcDbLine
 10
499.9999554229241
 20
1592.499999999608
 30
0.0
 11
499.9999554229241
 21
1600.499999999609
 31
0.0
  0
LINE
  5
46DD
330
507C
100
AcDbEntity
  8
0
100
AcDbLine
 10
499.9999554229241
 20
1602.499999999607
 30
0.0
 11
499.9999554229241
 21
1623.243557214409
 31
0.0
  0
LINE
  5
46DE
330
507C
100
AcDbEntity
  8
0
100
AcDbLine
 10
499.6891325290241
 20
1625.717389667408
 30
0.0
 11
493.9999554222239
 21
1648.000000000009
 31
0.0
  0
ARC
  5
46DF
330
507C
100
AcDbEntity
  8
0
100
AcDbCircle
 10
492.9999554222241
 20
1649.000000000008
 30
0.0
 40
1.0
100
AcDbArc
 50
0.0
 51
90.0
  0
LINE
  5
46E0
330
507C
100
AcDbEntity
  8
0
100
AcDbLine
 10
493.9999554222239
 20
1648.000000000009
 30
0.0
 11
493.9999554222239
 21
1649.000000000008
 31
0.0
  0
LINE
  5
46E1
330
507C
100
AcDbEntity
  8
0
100
AcDbLine
 10
464.9999554235247
 20
1602.499999999607
 30
0.0
 11
499.9999554229241
 21
1602.499999999607
 31
0.0
  0
LINE
  5
46E2
330
507C
100
AcDbEntity
  8
0
100
AcDbLine
 10
464.9999554235247
 20
1600.499999999609
 30
0.0
 11
499.9999554229241
 21
1600.499999999609
 31
0.0
  0
LINE
  5
46E3
330
507C
100
AcDbEntity
  8
0
100
AcDbLine
 10
464.9999554235247
 20
1592.499999999608
 30
0.0
 11
499.9999554229241
 21
1592.499999999608
 31
0.0
  0
LINE
  5
46E4
330
507C
100
AcDbEntity
  8
0
100
AcDbLine
 10
464.9999554235247
 20
1650.000000000008
 30
0.0
 11
492.9999554222241
 21
1650.000000000008
 31
0.0
  0
LINE
  5
46E5
330
507C
100
AcDbEntity
  8
0
100
AcDbLine
 10
494.9999554239083
 20
1560.999999999999
 30
0.0
 11
464.9999554235247
 21
1560.999999999999
 31
0.0
  0
LINE
  5
46E6
330
507C
100
AcDbEntity
  8
0
100
AcDbLine
 10
494.9999554239083
 20
1560.999999999999
 30
0.0
 11
494.9999554239083
 21
1573.999999999999
 31
0.0
  0
LINE
  5
46E8
330
507C
100
AcDbEntity
  8
0
100
AcDbLine
 10
493.9999554235247
 20
1573.999999999998
 30
0.0
 11
493.9999554235247
 21
1592.500000000147
 31
0.0
  0
LINE
  5
46E9
330
507C
100
AcDbEntity
  8
0
100
AcDbLine
 10
494.9999554239083
 20
1573.999999999999
 30
0.0
 11
494.9999554239083
 21
1571.999999999999
 31
0.0
  0
LINE
  5
46EA
330
507C
100
AcDbEntity
  8
0
100
AcDbLine
 10
494.9999554239083
 20
1573.999999999999
 30
0.0
 11
464.9999554235247
 21
1573.999999999999
 31
0.0
  0
LINE
  5
46EB
330
507C
100
AcDbEntity
  8
0
100
AcDbLine
 10
464.9999554235247
 20
1592.500000000147
 30
0.0
 11
493.9999554235247
 21
1592.500000000147
 31
0.0
  0
LINE
  5
46EC
330
507C
100
AcDbEntity
  8
0
100
AcDbLine
 10
481.9999554235247
 20
1651.0
 30
0.0
 11
481.9999554235247
 21
1650.000000000008
 31
0.0
  0
LINE
  5
46ED
330
507C
100
AcDbEntity
  8
0
100
AcDbLine
 10
481.9999554235247
 20
1651.0
 30
0.0
 11
464.9999554235247
 21
1651.0
 31
0.0
  0
ARC
  5
46EE
330
507C
100
AcDbEntity
  8
0
100
AcDbCircle
 10
429.9999554241249
 20
1601.499999999608
 30
0.0
 40
1.0
100
AcDbArc
 50
90.0
 51
270.0
  0
ARC
  5
46EF
330
507C
100
AcDbEntity
  8
0
100
AcDbCircle
 10
439.9999554241248
 20
1623.243557214409
 30
0.0
 40
10.0
100
AcDbArc
 50
165.6772800201816
 51
180.0
  0
LINE
  5
46F0
330
507C
100
AcDbEntity
  8
0
100
AcDbLine
 10
429.9999554241249
 20
1592.499999999608
 30
0.0
 11
429.9999554241249
 21
1600.499999999609
 31
0.0
  0
LINE
  5
46F1
330
507C
100
AcDbEntity
  8
0
100
AcDbLine
 10
429.9999554241249
 20
1602.499999999607
 30
0.0
 11
429.9999554241249
 21
1623.243557214409
 31
0.0
  0
LINE
  5
46F2
330
507C
100
AcDbEntity
  8
0
100
AcDbLine
 10
430.3107783180248
 20
1625.717389667408
 30
0.0
 11
435.9999554248242
 21
1648.000000000009
 31
0.0
  0
ARC
  5
46F3
330
507C
100
AcDbEntity
  8
0
100
AcDbCircle
 10
436.9999554248242
 20
1649.000000000008
 30
0.0
 40
1.0
100
AcDbArc
 50
90.0
 51
180.0
  0
LINE
  5
46F4
330
507C
100
AcDbEntity
  8
0
100
AcDbLine
 10
435.9999554248242
 20
1648.000000000009
 30
0.0
 11
435.9999554248242
 21
1649.000000000008
 31
0.0
  0
LINE
  5
46F5
330
507C
100
AcDbEntity
  8
0
100
AcDbLine
 10
464.9999554235247
 20
1602.499999999607
 30
0.0
 11
429.9999554241249
 21
1602.499999999607
 31
0.0
  0
LINE
  5
46F6
330
507C
100
AcDbEntity
  8
0
100
AcDbLine
 10
464.9999554235247
 20
1600.499999999609
 30
0.0
 11
429.9999554241249
 21
1600.499999999609
 31
0.0
  0
LINE
  5
46F7
330
507C
100
AcDbEntity
  8
0
100
AcDbLine
 10
464.9999554235247
 20
1592.499999999608
 30
0.0
 11
429.9999554241249
 21
1592.499999999608
 31
0.0
  0
LINE
  5
46F8
330
507C
100
AcDbEntity
  8
0
100
AcDbLine
 10
464.9999554235247
 20
1650.000000000008
 30
0.0
 11
436.9999554248242
 21
1650.000000000008
 31
0.0
  0
LINE
  5
46F9
330
507C
100
AcDbEntity
  8
0
100
AcDbLine
 10
434.9999554231408
 20
1560.999999999999
 30
0.0
 11
464.9999554235247
 21
1560.999999999999
 31
0.0
  0
LINE
  5
46FA
330
507C
100
AcDbEntity
  8
0
100
AcDbLine
 10
434.9999554231408
 20
1560.999999999999
 30
0.0
 11
434.9999554231408
 21
1573.999999999999
 31
0.0
  0
LINE
  5
46FC
330
507C
100
AcDbEntity
  8
0
100
AcDbLine
 10
435.9999554235246
 20
1573.999999999999
 30
0.0
 11
435.9999554235246
 21
1592.500000000147
 31
0.0
  0
LINE
  5
46FD
330
507C
100
AcDbEntity
  8
0
100
AcDbLine
 10
434.9999554231408
 20
1573.999999999999
 30
0.0
 11
434.9999554231408
 21
1571.999999999999
 31
0.0
  0
LINE
  5
46FE
330
507C
100
AcDbEntity
  8
0
100
AcDbLine
 10
434.9999554231408
 20
1573.999999999999
 30
0.0
 11
464.9999554235247
 21
1573.999999999999
 31
0.0
  0
LINE
  5
46FF
330
507C
100
AcDbEntity
  8
0
100
AcDbLine
 10
464.9999554235247
 20
1592.500000000147
 30
0.0
 11
435.9999554235246
 21
1592.500000000147
 31
0.0
  0
LINE
  5
4700
330
507C
100
AcDbEntity
  8
0
100
AcDbLine
 10
447.9999554235246
 20
1651.0
 30
0.0
 11
447.9999554235246
 21
1650.000000000008
 31
0.0
  0
LINE
  5
4701
330
507C
100
AcDbEntity
  8
0
100
AcDbLine
 10
447.9999554235246
 20
1651.0
 30
0.0
 11
464.9999554235247
 21
1651.0
 31
0.0
  0
ARC
  5
4702
330
507C
100
AcDbEntity
  8
0
100
AcDbCircle
 10
1224.9999999994
 20
1601.499999999608
 30
0.0
 40
1.0
100
AcDbArc
 50
270.0
 51
90.0
  0
ARC
  5
4703
330
507C
100
AcDbEntity
  8
0
100
AcDbCircle
 10
1214.9999999994
 20
1623.243557214409
 30
0.0
 40
10.0
100
AcDbArc
 50
0.0
 51
14.32271997981844
  0
LINE
  5
4704
330
507C
100
AcDbEntity
  8
0
100
AcDbLine
 10
1224.9999999994
 20
1592.499999999608
 30
0.0
 11
1224.9999999994
 21
1600.499999999609
 31
0.0
  0
LINE
  5
4705
330
507C
100
AcDbEntity
  8
0
100
AcDbLine
 10
1224.9999999994
 20
1602.499999999607
 30
0.0
 11
1224.9999999994
 21
1623.243557214409
 31
0.0
  0
LINE
  5
4706
330
507C
100
AcDbEntity
  8
0
100
AcDbLine
 10
1224.6891771055
 20
1625.717389667408
 30
0.0
 11
1218.9999999987
 21
1648.000000000009
 31
0.0
  0
ARC
  5
4707
330
507C
100
AcDbEntity
  8
0
100
AcDbCircle
 10
1217.999999998699
 20
1649.000000000008
 30
0.0
 40
1.0
100
AcDbArc
 50
0.0
 51
90.0
  0
LINE
  5
4708
330
507C
100
AcDbEntity
  8
0
100
AcDbLine
 10
1218.9999999987
 20
1648.000000000009
 30
0.0
 11
1218.9999999987
 21
1649.000000000008
 31
0.0
  0
LINE
  5
4709
330
507C
100
AcDbEntity
  8
0
100
AcDbLine
 10
1190.0
 20
1602.499999999607
 30
0.0
 11
1224.9999999994
 21
1602.499999999607
 31
0.0
  0
LINE
  5
470A
330
507C
100
AcDbEntity
  8
0
100
AcDbLine
 10
1190.0
 20
1600.499999999609
 30
0.0
 11
1224.9999999994
 21
1600.499999999609
 31
0.0
  0
LINE
  5
470B
330
507C
100
AcDbEntity
  8
0
100
AcDbLine
 10
1190.0
 20
1592.499999999608
 30
0.0
 11
1224.9999999994
 21
1592.499999999608
 31
0.0
  0
LINE
  5
470C
330
507C
100
AcDbEntity
  8
0
100
AcDbLine
 10
1190.0
 20
1650.000000000008
 30
0.0
 11
1217.999999998699
 21
1650.000000000008
 31
0.0
  0
LINE
  5
470D
330
507C
100
AcDbEntity
  8
0
100
AcDbLine
 10
1220.000000000384
 20
1560.999999999999
 30
0.0
 11
1190.0
 21
1560.999999999999
 31
0.0
  0
LINE
  5
470E
330
507C
100
AcDbEntity
  8
0
100
AcDbLine
 10
1220.000000000384
 20
1560.999999999999
 30
0.0
 11
1220.000000000384
 21
1573.999999999999
 31
0.0
  0
LINE
  5
4710
330
507C
100
AcDbEntity
  8
0
100
AcDbLine
 10
1219.0
 20
1573.999999999998
 30
0.0
 11
1219.0
 21
1592.500000000147
 31
0.0
  0
LINE
  5
4711
330
507C
100
AcDbEntity
  8
0
100
AcDbLine
 10
1220.000000000384
 20
1573.999999999999
 30
0.0
 11
1220.000000000384
 21
1571.999999999999
 31
0.0
  0
LINE
  5
4712
330
507C
100
AcDbEntity
  8
0
100
AcDbLine
 10
1220.000000000384
 20
1573.999999999999
 30
0.0
 11
1190.0
 21
1573.999999999999
 31
0.0
  0
LINE
  5
4713
330
507C
100
AcDbEntity
  8
0
100
AcDbLine
 10
1190.0
 20
1592.500000000147
 30
0.0
 11
1219.0
 21
1592.500000000147
 31
0.0
  0
LINE
  5
4714
330
507C
100
AcDbEntity
  8
0
100
AcDbLine
 10
1207.0
 20
1651.0
 30
0.0
 11
1207.0
 21
1650.000000000008
 31
0.0
  0
LINE
  5
4715
330
507C
100
AcDbEntity
  8
0
100
AcDbLine
 10
1207.0
 20
1651.0
 30
0.0
 11
1190.0
 21
1651.0
 31
0.0
  0
ARC
  5
4716
330
507C
100
AcDbEntity
  8
0
100
AcDbCircle
 10
1155.0000000006
 20
1601.499999999608
 30
0.0
 40
1.0
100
AcDbArc
 50
90.0
 51
270.0
  0
ARC
  5
4717
330
507C
100
AcDbEntity
  8
0
100
AcDbCircle
 10
1165.0000000006
 20
1623.243557214409
 30
0.0
 40
10.0
100
AcDbArc
 50
165.6772800201816
 51
180.0
  0
LINE
  5
4718
330
507C
100
AcDbEntity
  8
0
100
AcDbLine
 10
1155.0000000006
 20
1592.499999999608
 30
0.0
 11
1155.0000000006
 21
1600.499999999609
 31
0.0
  0
LINE
  5
4719
330
507C
100
AcDbEntity
  8
0
100
AcDbLine
 10
1155.0000000006
 20
1602.499999999607
 30
0.0
 11
1155.0000000006
 21
1623.243557214409
 31
0.0
  0
LINE
  5
471A
330
507C
100
AcDbEntity
  8
0
100
AcDbLine
 10
1155.3108228945
 20
1625.717389667408
 30
0.0
 11
1161.0000000013
 21
1648.000000000009
 31
0.0
  0
ARC
  5
471B
330
507C
100
AcDbEntity
  8
0
100
AcDbCircle
 10
1162.0000000013
 20
1649.000000000008
 30
0.0
 40
1.0
100
AcDbArc
 50
90.0
 51
180.0
  0
LINE
  5
471C
330
507C
100
AcDbEntity
  8
0
100
AcDbLine
 10
1161.0000000013
 20
1648.000000000009
 30
0.0
 11
1161.0000000013
 21
1649.000000000008
 31
0.0
  0
LINE
  5
471D
330
507C
100
AcDbEntity
  8
0
100
AcDbLine
 10
1190.0
 20
1602.499999999607
 30
0.0
 11
1155.0000000006
 21
1602.499999999607
 31
0.0
  0
LINE
  5
471E
330
507C
100
AcDbEntity
  8
0
100
AcDbLine
 10
1190.0
 20
1600.499999999609
 30
0.0
 11
1155.0000000006
 21
1600.499999999609
 31
0.0
  0
LINE
  5
471F
330
507C
100
AcDbEntity
  8
0
100
AcDbLine
 10
1190.0
 20
1592.499999999608
 30
0.0
 11
1155.0000000006
 21
1592.499999999608
 31
0.0
  0
LINE
  5
4720
330
507C
100
AcDbEntity
  8
0
100
AcDbLine
 10
1190.0
 20
1650.000000000008
 30
0.0
 11
1162.0000000013
 21
1650.000000000008
 31
0.0
  0
LINE
  5
4721
330
507C
100
AcDbEntity
  8
0
100
AcDbLine
 10
1159.999999999616
 20
1560.999999999999
 30
0.0
 11
1190.0
 21
1560.999999999999
 31
0.0
  0
LINE
  5
4722
330
507C
100
AcDbEntity
  8
0
100
AcDbLine
 10
1159.999999999616
 20
1560.999999999999
 30
0.0
 11
1159.999999999616
 21
1573.999999999999
 31
0.0
  0
LINE
  5
4724
330
507C
100
AcDbEntity
  8
0
100
AcDbLine
 10
1161.0
 20
1573.999999999999
 30
0.0
 11
1161.0
 21
1592.500000000147
 31
0.0
  0
LINE
  5
4725
330
507C
100
AcDbEntity
  8
0
100
AcDbLine
 10
1159.999999999616
 20
1573.999999999999
 30
0.0
 11
1159.999999999616
 21
1571.999999999999
 31
0.0
  0
LINE
  5
4726
330
507C
100
AcDbEntity
  8
0
100
AcDbLine
 10
1159.999999999616
 20
1573.999999999999
 30
0.0
 11
1190.0
 21
1573.999999999999
 31
0.0
  0
LINE
  5
4727
330
507C
100
AcDbEntity
  8
0
100
AcDbLine
 10
1190.0
 20
1592.500000000147
 30
0.0
 11
1161.0
 21
1592.500000000147
 31
0.0
  0
LINE
  5
4728
330
507C
100
AcDbEntity
  8
0
100
AcDbLine
 10
1173.0
 20
1651.0
 30
0.0
 11
1173.0
 21
1650.000000000008
 31
0.0
  0
LINE
  5
4729
330
507C
100
AcDbEntity
  8
0
100
AcDbLine
 10
1173.0
 20
1651.0
 30
0.0
 11
1190.0
 21
1651.0
 31
0.0
  0
LINE
  5
472A
330
507C
100
AcDbEntity
  8
0
100
AcDbLine
 10
494.9999554239083
 20
1571.999999999999
 30
0.0
 11
794.9999554235246
 21
1571.999999999999
 31
0.0
  0
LINE
  5
4B08
330
507C
100
AcDbEntity
  8
0
100
AcDbLine
 10
493.0641859485518
 20
711.6461944737935
 30
0.0
 11
181.359898704162
 21
711.6461944737939
 31
0.0
  0
LINE
  5
4B09
330
507C
100
AcDbEntity
  8
0
100
AcDbLine
 10
493.0641859485518
 20
1101.646260507473
 30
0.0
 11
181.3598987041624
 21
1101.646260507473
 31
0.0
  0
LINE
  5
4B0A
330
507C
100
AcDbEntity
  8
0
100
AcDbLine
 10
199.3598987041623
 20
731.6461944737937
 30
0.0
 11
199.3598987041623
 21
1081.646260507473
 31
0.0
  0
LINE
  5
4B0E
330
507C
100
AcDbEntity
  8
0
100
AcDbLine
 10
1124.999963880076
 20
1133.581972494535
 30
0.0
 11
1124.999963880076
 21
1221.581972494536
 31
0.0
  0
LINE
  5
4B0F
330
507C
100
AcDbEntity
  8
0
100
AcDbLine
 10
524.9999638800759
 20
1133.581972494535
 30
0.0
 11
524.9999638800759
 21
1221.581972494536
 31
0.0
  0
LINE
  5
4B10
330
507C
100
AcDbEntity
  8
0
100
AcDbLine
 10
1104.999963880076
 20
1203.581972494536
 30
0.0
 11
544.9999638800759
 21
1203.581972494536
 31
0.0
  0
LINE
  5
4B14
330
507C
100
AcDbEntity
  8
0
100
AcDbLine
 10
538.3888025823273
 20
2397.522249361838
 30
0.0
 11
524.9999554235244
 21
2381.728026394978
 31
0.0
  0
LINE
  5
4B15
330
507C
100
AcDbEntity
  8
0
100
AcDbLine
 10
524.9999554235244
 20
2381.728026394978
 30
0.0
 11
528.6979257994263
 21
2402.100648279941
 31
0.0
  0
LINE
  5
4B16
330
507C
100
AcDbEntity
  8
0
100
AcDbLine
 10
524.9999554235244
 20
2381.728026394978
 30
0.0
 11
533.5433641908768
 21
2399.811448820889
 31
0.0
  0
LINE
  5
4B17
330
507C
100
AcDbEntity
  8
0
100
AcDbLine
 10
1158.24159850775
 20
1951.884279330873
 30
0.0
 11
1168.461802896358
 21
1969.891670303019
 31
0.0
  0
LINE
  5
4B18
330
507C
100
AcDbEntity
  8
0
100
AcDbLine
 10
1168.461802896358
 20
1969.891670303019
 30
0.0
 11
1168.614541656098
 21
1949.186710070264
 31
0.0
  0
LINE
  5
4B19
330
507C
100
AcDbEntity
  8
0
100
AcDbLine
 10
1168.461802896358
 20
1969.891670303019
 30
0.0
 11
1163.428070081924
 21
1950.535494700569
 31
0.0
  0
LINE
  5
4B1A
330
507C
100
AcDbEntity
  8
0
100
AcDbLine
 10
349.0000000000003
 20
1571.999999999998
 30
0.0
 11
231.9999554235244
 21
1571.999999999998
 31
0.0
  0
LINE
  5
4B1B
330
507C
100
AcDbEntity
  8
0
100
AcDbLine
 10
248.9999554235243
 20
1541.999999999999
 30
0.0
 11
231.9999554235244
 21
1541.999999999999
 31
0.0
  0
LINE
  5
4B1C
330
507C
100
AcDbEntity
  8
0
100
AcDbLine
 10
249.9999554235244
 20
1571.999999999998
 30
0.0
 11
249.9999554235244
 21
1541.999999999999
 31
0.0
  0
LINE
  5
4B20
330
507C
100
AcDbEntity
  8
0
100
AcDbLine
 10
349.0000000000003
 20
1651.0
 30
0.0
 11
231.9999554235244
 21
1651.0
 31
0.0
  0
LINE
  5
4B21
330
507C
100
AcDbEntity
  8
0
100
AcDbLine
 10
248.9999554235244
 20
1681.0
 30
0.0
 11
231.9999554235244
 21
1681.0
 31
0.0
  0
LINE
  5
4B22
330
507C
100
AcDbEntity
  8
0
100
AcDbLine
 10
249.9999554235244
 20
1651.0
 30
0.0
 11
249.9999554235244
 21
1681.0
 31
0.0
  0
LINE
  5
4B23
330
507C
100
AcDbEntity
  8
0
100
AcDbLine
 10
249.9999554235244
 20
1681.0
 30
0.0
 11
249.9999554235244
 21
1738.5
 31
0.0
  0
LINE
  5
4B27
330
507C
100
AcDbEntity
  8
0
100
AcDbLine
 10
181.0385061452493
 20
1681.0
 30
0.0
 11
131.9999554235242
 21
1681.0
 31
0.0
  0
LINE
  5
4B28
330
507C
100
AcDbEntity
  8
0
100
AcDbLine
 10
180.9999554235244
 20
1541.999999999999
 30
0.0
 11
131.9999554235242
 21
1541.999999999999
 31
0.0
  0
LINE
  5
4B29
330
507C
100
AcDbEntity
  8
0
100
AcDbLine
 10
149.9999554235242
 20
1661.0
 30
0.0
 11
149.9999554235242
 21
1561.999999999999
 31
0.0
  0
LINE
  5
4B2D
330
507C
100
AcDbEntity
  8
0
100
AcDbLine
 10
349.0000000000003
 20
1681.0
 30
0.0
 11
181.9999554235244
 21
1681.0
 31
0.0
  0
LINE
  5
4B2E
330
507C
100
AcDbEntity
  8
0
100
AcDbLine
 10
352.0000000000003
 20
1541.999999999999
 30
0.0
 11
181.9999554235244
 21
1541.999999999999
 31
0.0
  0
LINE
  5
4B33
330
507C
100
AcDbEntity
  8
0
100
AcDbLine
 10
372.9999791759802
 20
2401.728
 30
0.0
 11
131.9999554235244
 21
2401.728
 31
0.0
  0
LINE
  5
4B34
330
507C
100
AcDbEntity
  8
0
100
AcDbLine
 10
372.4999791759795
 20
1951.72816403952
 30
0.0
 11
131.9999554235243
 21
1951.72816403952
 31
0.0
  0
LINE
  5
4B35
330
507C
100
AcDbEntity
  8
0
100
AcDbLine
 10
149.9999554235244
 20
2381.728
 30
0.0
 11
149.9999554235243
 21
1971.728164039521
 31
0.0
  0
LINE
  5
4B39
330
507C
100
AcDbEntity
  8
0
100
AcDbLine
 10
1299.99997629755
 20
2379.227911358386
 30
0.0
 11
1299.99997629755
 21
2619.727949101932
 31
0.0
  0
LINE
  5
4B3A
330
507C
100
AcDbEntity
  8
0
100
AcDbLine
 10
350.0000000000003
 20
2379.228000000009
 30
0.0
 11
350.0000000000003
 21
2619.727949101932
 31
0.0
  0
LINE
  5
4B3B
330
507C
100
AcDbEntity
  8
0
100
AcDbLine
 10
1279.99997629755
 20
2601.727949101932
 30
0.0
 11
370.0000000000002
 21
2601.727949101932
 31
0.0
  0
LINE
  5
4B3F
330
507C
100
AcDbEntity
  8
0
100
AcDbLine
 10
524.9999638800759
 20
711.6461944737935
 30
0.0
 11
536.2454432489868
 21
694.2606285740828
 31
0.0
  0
LINE
  5
4B40
330
507C
100
AcDbEntity
  8
0
100
AcDbLine
 10
524.9999638800759
 20
711.6461944737935
 30
0.0
 11
526.0460517414314
 21
690.9671130610202
 31
0.0
  0
LINE
  5
4B41
330
507C
100
AcDbEntity
  8
0
100
AcDbLine
 10
531.1457474952093
 20
692.6138708175516
 30
0.0
 11
524.9999638800759
 21
711.6461944737935
 31
0.0
  0
CIRCLE
  5
4B42
330
507C
100
AcDbEntity
  8
0
100
AcDbCircle
 10
1267.99997629755
 20
2369.727952922279
 30
0.0
 40
12.0000000000005
  0
CIRCLE
  5
4B44
330
507C
100
AcDbEntity
  8
0
100
AcDbCircle
 10
1267.99997629755
 20
1983.728033833998
 30
0.0
 40
12.0000000000005
  0
CIRCLE
  5
4B46
330
507C
100
AcDbEntity
  8
0
100
AcDbCircle
 10
382.0000000000002
 20
2369.728041563902
 30
0.0
 40
12.0000000000005
  0
CIRCLE
  5
4B48
330
507C
100
AcDbEntity
  8
0
100
AcDbCircle
 10
382.0000000000002
 20
1983.728122475621
 30
0.0
 40
12.0000000000005
  0
TEXT
  5
4B4A
330
507C
100
AcDbEntity
  8
0
100
AcDbText
 10
573.8871266602027
 20
629.0741782569369
 30
0.0
 40
25.0
  1
4-\U+220520
100
AcDbText
  0
LINE
  5
4B4B
330
507C
100
AcDbEntity
  8
0
100
AcDbLine
 10
388.9282032302757
 20
1995.728122475621
 30
0.0
 11
395.8564064605512
 21
1983.728122475621
 31
0.0
  0
LINE
  5
4B4C
330
507C
100
AcDbEntity
  8
0
100
AcDbLine
 10
395.8564064605512
 20
1983.728122475621
 30
0.0
 11
388.9282032302757
 21
1971.72812247562
 31
0.0
  0
LINE
  5
4B4D
330
507C
100
AcDbEntity
  8
0
100
AcDbLine
 10
388.9282032302757
 20
1971.72812247562
 30
0.0
 11
375.0717967697247
 21
1971.72812247562
 31
0.0
  0
LINE
  5
4B4E
330
507C
100
AcDbEntity
  8
0
100
AcDbLine
 10
375.0717967697247
 20
1971.72812247562
 30
0.0
 11
368.1435935394492
 21
1983.728122475621
 31
0.0
  0
LINE
  5
4B4F
330
507C
100
AcDbEntity
  8
0
100
AcDbLine
 10
368.1435935394492
 20
1983.728122475621
 30
0.0
 11
375.0717967697247
 21
1995.728122475621
 31
0.0
  0
LINE
  5
4B50
330
507C
100
AcDbEntity
  8
0
100
AcDbLine
 10
375.0717967697247
 20
1995.728122475621
 30
0.0
 11
388.9282032302757
 21
1995.728122475621
 31
0.0
  0
LINE
  5
4B51
330
507C
100
AcDbEntity
  8
0
100
AcDbLine
 10
1261.071773067275
 20
2357.727952922279
 30
0.0
 11
1254.143569836999
 21
2369.727952922279
 31
0.0
  0
LINE
  5
4B52
330
507C
100
AcDbEntity
  8
0
100
AcDbLine
 10
1254.143569836999
 20
2369.727952922279
 30
0.0
 11
1261.071773067275
 21
2381.727952922279
 31
0.0
  0
LINE
  5
4B53
330
507C
100
AcDbEntity
  8
0
100
AcDbLine
 10
1261.071773067275
 20
2381.727952922279
 30
0.0
 11
1274.928179527825
 21
2381.727952922279
 31
0.0
  0
LINE
  5
4B54
330
507C
100
AcDbEntity
  8
0
100
AcDbLine
 10
1274.928179527825
 20
2381.727952922279
 30
0.0
 11
1281.856382758101
 21
2369.727952922279
 31
0.0
  0
LINE
  5
4B55
330
507C
100
AcDbEntity
  8
0
100
AcDbLine
 10
1281.856382758101
 20
2369.727952922279
 30
0.0
 11
1274.928179527825
 21
2357.727952922279
 31
0.0
  0
LINE
  5
4B56
330
507C
100
AcDbEntity
  8
0
100
AcDbLine
 10
1274.928179527825
 20
2357.727952922279
 30
0.0
 11
1261.071773067275
 21
2357.727952922279
 31
0.0
  0
TEXT
  5
4B57
330
507C
100
AcDbEntity
  8
0
100
AcDbText
 10
184.359898704162
 20
869.1462274906337
 30
0.0
 40
25.0
  1
390
 50
90.0
100
AcDbText
  0
LINE
  5
4B58
330
507C
100
AcDbEntity
  8
0
100
AcDbLine
 10
194.0009149041623
 20
1081.646260507473
 30
0.0
 11
199.3598987041623
 21
1101.646260507473
 31
0.0
  0
LINE
  5
4B59
330
507C
100
AcDbEntity
  8
0
100
AcDbLine
 10
199.3598987041623
 20
1101.646260507473
 30
0.0
 11
204.7188825041624
 21
1081.646260507473
 31
0.0
  0
LINE
  5
4B5A
330
507C
100
AcDbEntity
  8
0
100
AcDbLine
 10
199.3598987041623
 20
1101.646260507473
 30
0.0
 11
199.3598987041623
 21
1081.646260507473
 31
0.0
  0
LINE
  5
4B5B
330
507C
100
AcDbEntity
  8
0
100
AcDbLine
 10
204.7188825041623
 20
731.6461944737937
 30
0.0
 11
199.3598987041623
 21
711.6461944737939
 31
0.0
  0
LINE
  5
4B5C
330
507C
100
AcDbEntity
  8
0
100
AcDbLine
 10
199.3598987041623
 20
711.6461944737939
 30
0.0
 11
194.0009149041623
 21
731.6461944737937
 31
0.0
  0
LINE
  5
4B5D
330
507C
100
AcDbEntity
  8
0
100
AcDbLine
 10
199.3598987041623
 20
711.6461944737939
 30
0.0
 11
199.3598987041623
 21
731.6461944737937
 31
0.0
  0
TEXT
  5
4B5E
330
507C
100
AcDbEntity
  8
0
100
AcDbText
 10
789.9999638800757
 20
1218.581972494536
 30
0.0
 40
25.0
  1
600
100
AcDbText
  0
LINE
  5
4B5F
330
507C
100
AcDbEntity
  8
0
100
AcDbLine
 10
544.9999638800759
 20
1198.222988694534
 30
0.0
 11
524.9999638800759
 21
1203.581972494536
 31
0.0
  0
LINE
  5
4B60
330
507C
100
AcDbEntity
  8
0
100
AcDbLine
 10
524.9999638800759
 20
1203.581972494536
 30
0.0
 11
544.9999638800759
 21
1208.940956294537
 31
0.0
  0
LINE
  5
4B61
330
507C
100
AcDbEntity
  8
0
100
AcDbLine
 10
524.9999638800759
 20
1203.581972494536
 30
0.0
 11
544.9999638800759
 21
1203.581972494536
 31
0.0
  0
LINE
  5
4B62
330
507C
100
AcDbEntity
  8
0
100
AcDbLine
 10
1104.999963880076
 20
1208.940956294537
 30
0.0
 11
1124.999963880076
 21
1203.581972494536
 31
0.0
  0
LINE
  5
4B63
330
507C
100
AcDbEntity
  8
0
100
AcDbLine
 10
1124.999963880076
 20
1203.581972494536
 30
0.0
 11
1104.999963880076
 21
1198.222988694534
 31
0.0
  0
LINE
  5
4B64
330
507C
100
AcDbEntity
  8
0
100
AcDbLine
 10
1124.999963880076
 20
1203.581972494536
 30
0.0
 11
1104.999963880076
 21
1203.581972494536
 31
0.0
  0
TEXT
  5
4B67
330
507C
100
AcDbEntity
  8
0
100
AcDbText
 10
237.8359159768387
 20
1487.584516102295
 30
0.0
 40
25.0
  1
30
 50
90.0
100
AcDbText
  0
TEXT
  5
4B68
330
507C
100
AcDbEntity
  8
0
100
AcDbText
 10
237.4999554235242
 20
1701.0
 30
0.0
 40
25.0
  1
30
 50
90.0
100
AcDbText
  0
LINE
  5
4B6B
330
507C
100
AcDbEntity
  8
0
100
AcDbLine
 10
149.9999554235242
 20
1541.999999999999
 30
0.0
 11
144.640971574902
 21
1561.999999999999
 31
0.0
  0
LINE
  5
4B6C
330
507C
100
AcDbEntity
  8
0
100
AcDbLine
 10
149.9999554235242
 20
1541.999999999999
 30
0.0
 11
155.3589392721463
 21
1561.999999999999
 31
0.0
  0
LINE
  5
4B6D
330
507C
100
AcDbEntity
  8
0
100
AcDbLine
 10
149.9999554235242
 20
1561.999999999999
 30
0.0
 11
149.9999554235242
 21
1541.999999999999
 31
0.0
  0
LINE
  5
4B6E
330
507C
100
AcDbEntity
  8
0
100
AcDbLine
 10
149.9999554235242
 20
1681.0
 30
0.0
 11
155.3589392721463
 21
1661.0
 31
0.0
  0
LINE
  5
4B6F
330
507C
100
AcDbEntity
  8
0
100
AcDbLine
 10
149.9999554235242
 20
1681.0
 30
0.0
 11
144.6409715749022
 21
1661.0
 31
0.0
  0
LINE
  5
4B70
330
507C
100
AcDbEntity
  8
0
100
AcDbLine
 10
149.9999554235242
 20
1661.0
 30
0.0
 11
149.9999554235242
 21
1681.0
 31
0.0
  0
TEXT
  5
4B71
330
507C
100
AcDbEntity
  8
0
100
AcDbText
 10
131.999955423524
 20
1509.595238095238
 30
0.0
 40
25.0
  1
据付時約 139
 50
90.0
100
AcDbText
  0
TEXT
  5
4B79
330
507C
100
AcDbEntity
  8
0
100
AcDbText
 10
137.499955423524
 20
2145.478082019761
 30
0.0
 40
25.0
  1
450
 50
90.0
100
AcDbText
  0
LINE
  5
4B7A
330
507C
100
AcDbEntity
  8
0
100
AcDbLine
 10
149.9999554235243
 20
1951.72816403952
 30
0.0
 11
144.6409715749022
 21
1971.728164039521
 31
0.0
  0
LINE
  5
4B7B
330
507C
100
AcDbEntity
  8
0
100
AcDbLine
 10
149.9999554235243
 20
1951.72816403952
 30
0.0
 11
155.3589392721464
 21
1971.728164039521
 31
0.0
  0
LINE
  5
4B7C
330
507C
100
AcDbEntity
  8
0
100
AcDbLine
 10
149.9999554235243
 20
1971.728164039521
 30
0.0
 11
149.9999554235243
 21
1951.72816403952
 31
0.0
  0
LINE
  5
4B7D
330
507C
100
AcDbEntity
  8
0
100
AcDbLine
 10
149.9999554235244
 20
2401.728
 30
0.0
 11
155.3589392721464
 21
2381.728
 31
0.0
  0
LINE
  5
4B7E
330
507C
100
AcDbEntity
  8
0
100
AcDbLine
 10
149.9999554235244
 20
2401.728
 30
0.0
 11
144.6409715749024
 21
2381.728
 31
0.0
  0
LINE
  5
4B7F
330
507C
100
AcDbEntity
  8
0
100
AcDbLine
 10
149.9999554235244
 20
2381.728
 30
0.0
 11
149.9999554235244
 21
2401.728
 31
0.0
  0
TEXT
  5
4B80
330
507C
100
AcDbEntity
  8
0
100
AcDbText
 10
793.7499881487751
 20
2614.227949101933
 30
0.0
 40
25.0
  1
950
100
AcDbText
  0
LINE
  5
4B81
330
507C
100
AcDbEntity
  8
0
100
AcDbLine
 10
350.0000000000003
 20
2601.727949101932
 30
0.0
 11
370.0000000000002
 21
2607.086932950554
 31
0.0
  0
LINE
  5
4B82
330
507C
100
AcDbEntity
  8
0
100
AcDbLine
 10
350.0000000000003
 20
2601.727949101932
 30
0.0
 11
370.0000000000002
 21
2596.368965253311
 31
0.0
  0
LINE
  5
4B83
330
507C
100
AcDbEntity
  8
0
100
AcDbLine
 10
370.0000000000002
 20
2601.727949101932
 30
0.0
 11
350.0000000000003
 21
2601.727949101932
 31
0.0
  0
LINE
  5
4B84
330
507C
100
AcDbEntity
  8
0
100
AcDbLine
 10
1299.99997629755
 20
2601.727949101932
 30
0.0
 11
1279.99997629755
 21
2596.368965253311
 31
0.0
  0
LINE
  5
4B85
330
507C
100
AcDbEntity
  8
0
100
AcDbLine
 10
1299.99997629755
 20
2601.727949101932
 30
0.0
 11
1279.99997629755
 21
2607.086932950554
 31
0.0
  0
LINE
  5
4B86
330
507C
100
AcDbEntity
  8
0
100
AcDbLine
 10
1279.99997629755
 20
2601.727949101932
 30
0.0
 11
1299.99997629755
 21
2601.727949101932
 31
0.0
  0
LINE
  5
4B87
330
507C
100
AcDbEntity
  8
0
100
AcDbLine
 10
1261.071773067275
 20
1995.728033833998
 30
0.0
 11
1254.143569836999
 21
1983.728033833998
 31
0.0
  0
LINE
  5
4B88
330
507C
100
AcDbEntity
  8
0
100
AcDbLine
 10
1254.143569836999
 20
1983.728033833998
 30
0.0
 11
1261.071773067275
 21
1971.728033833998
 31
0.0
  0
LINE
  5
4B89
330
507C
100
AcDbEntity
  8
0
100
AcDbLine
 10
1261.071773067275
 20
1971.728033833998
 30
0.0
 11
1274.928179527825
 21
1971.728033833998
 31
0.0
  0
LINE
  5
4B8A
330
507C
100
AcDbEntity
  8
0
100
AcDbLine
 10
1274.928179527825
 20
1971.728033833998
 30
0.0
 11
1281.856382758101
 21
1983.728033833998
 31
0.0
  0
LINE
  5
4B8B
330
507C
100
AcDbEntity
  8
0
100
AcDbLine
 10
1281.856382758101
 20
1983.728033833998
 30
0.0
 11
1274.928179527825
 21
1995.728033833998
 31
0.0
  0
LINE
  5
4B8C
330
507C
100
AcDbEntity
  8
0
100
AcDbLine
 10
1274.928179527825
 20
1995.728033833998
 30
0.0
 11
1261.071773067275
 21
1995.728033833998
 31
0.0
  0
LINE
  5
4B8D
330
507C
100
AcDbEntity
  8
0
100
AcDbLine
 10
388.9282032302757
 20
2357.728041563902
 30
0.0
 11
395.8564064605512
 21
2369.728041563902
 31
0.0
  0
LINE
  5
4B8E
330
507C
100
AcDbEntity
  8
0
100
AcDbLine
 10
395.8564064605512
 20
2369.728041563902
 30
0.0
 11
388.9282032302757
 21
2381.728041563901
 31
0.0
  0
LINE
  5
4B8F
330
507C
100
AcDbEntity
  8
0
100
AcDbLine
 10
388.9282032302757
 20
2381.728041563901
 30
0.0
 11
375.0717967697247
 21
2381.728041563901
 31
0.0
  0
LINE
  5
4B90
330
507C
100
AcDbEntity
  8
0
100
AcDbLine
 10
375.0717967697247
 20
2381.728041563901
 30
0.0
 11
368.1435935394492
 21
2369.728041563902
 31
0.0
  0
LINE
  5
4B91
330
507C
100
AcDbEntity
  8
0
100
AcDbLine
 10
368.1435935394492
 20
2369.728041563902
 30
0.0
 11
375.0717967697247
 21
2357.728041563902
 31
0.0
  0
LINE
  5
4B92
330
507C
100
AcDbEntity
  8
0
100
AcDbLine
 10
375.0717967697247
 20
2357.728041563902
 30
0.0
 11
388.9282032302757
 21
2357.728041563902
 31
0.0
  0
ARC
  5
4B93
330
507C
100
AcDbEntity
  8
0
100
AcDbCircle
 10
249.9999554235244
 20
1541.999999999999
 30
0.0
 40
1.25
100
AcDbArc
 50
90.0
 51
270.0
  0
ARC
  5
4B94
330
507C
100
AcDbEntity
  8
0
100
AcDbCircle
 10
249.9999554235244
 20
1541.999999999999
 30
0.0
 40
1.25
100
AcDbArc
 50
270.0
 51
90.0
  0
ARC
  5
4B95
330
507C
100
AcDbEntity
  8
0
100
AcDbCircle
 10
249.9999554235244
 20
1571.999999999998
 30
0.0
 40
1.25
100
AcDbArc
 50
270.0
 51
90.0
  0
ARC
  5
4B96
330
507C
100
AcDbEntity
  8
0
100
AcDbCircle
 10
249.9999554235244
 20
1571.999999999998
 30
0.0
 40
1.25
100
AcDbArc
 50
90.0
 51
270.0
  0
ARC
  5
4B97
330
507C
100
AcDbEntity
  8
0
100
AcDbCircle
 10
249.9999554235244
 20
1681.0
 30
0.0
 40
1.25
100
AcDbArc
 50
270.0
 51
90.0
  0
ARC
  5
4B98
330
507C
100
AcDbEntity
  8
0
100
AcDbCircle
 10
249.9999554235244
 20
1681.0
 30
0.0
 40
1.25
100
AcDbArc
 50
90.0
 51
270.0
  0
ARC
  5
4B99
330
507C
100
AcDbEntity
  8
0
100
AcDbCircle
 10
249.9999554235244
 20
1651.0
 30
0.0
 40
1.25
100
AcDbArc
 50
90.0
 51
270.0
  0
ARC
  5
4B9A
330
507C
100
AcDbEntity
  8
0
100
AcDbCircle
 10
249.9999554235244
 20
1651.0
 30
0.0
 40
1.25
100
AcDbArc
 50
270.0
 51
90.0
  0
TEXT
  5
4E42
330
507C
100
AcDbEntity
  8
0
100
AcDbText
 10
350.2524303709852
 20
1457.653735480175
 30
0.0
 40
30.0
  1
※搭載機器や施工状況等によって、据付高さは若干異なる可能性があります。
100
AcDbText
  0
LINE
  5
51BA
330
507C
100
AcDbEntity
  8
0
100
AcDbLine
 10
524.9999638800759
 20
1133.582038438996
 30
0.0
 11
524.9999638800759
 21
1221.603886206217
 31
0.0
  0
LINE
  5
51BB
330
507C
100
AcDbEntity
  8
0
100
AcDbLine
 10
349.9999706694226
 20
1141.646279134232
 30
0.0
 11
349.9999706694226
 21
1221.603886206217
 31
0.0
  0
LINE
  5
51BC
330
507C
100
AcDbEntity
  8
0
100
AcDbLine
 10
504.999963880076
 20
1203.603886206218
 30
0.0
 11
369.9999706694226
 21
1203.603886206218
 31
0.0
  0
LINE
  5
51C0
330
507C
100
AcDbEntity
  8
0
100
AcDbLine
 10
1124.999977458757
 20
1133.582038438996
 30
0.0
 11
1124.999977458757
 21
1221.603886206217
 31
0.0
  0
LINE
  5
51C1
330
507C
100
AcDbEntity
  8
0
100
AcDbLine
 10
1299.99997066941
 20
1141.646279134232
 30
0.0
 11
1299.99997066941
 21
1221.603886206217
 31
0.0
  0
LINE
  5
51C2
330
507C
100
AcDbEntity
  8
0
100
AcDbLine
 10
1144.999977458756
 20
1203.603886206218
 30
0.0
 11
1279.99997066941
 21
1203.603886206218
 31
0.0
  0
LINE
  5
51C6
330
507C
100
AcDbEntity
  8
0
  6
ByBlock
100
AcDbLine
 10
504.999963880076
 20
1208.962870006218
 30
0.0
 11
524.9999638800759
 21
1203.603886206218
 31
0.0
  0
LINE
  5
51C7
330
507C
100
AcDbEntity
  8
0
  6
ByBlock
100
AcDbLine
 10
524.9999638800759
 20
1203.603886206218
 30
0.0
 11
504.999963880076
 21
1198.244902406218
 31
0.0
  0
LINE
  5
51C8
330
507C
100
AcDbEntity
  8
0
  6
ByBlock
100
AcDbLine
 10
524.9999638800759
 20
1203.603886206218
 30
0.0
 11
504.999963880076
 21
1203.603886206218
 31
0.0
  0
LINE
  5
51C9
330
507C
100
AcDbEntity
  8
0
  6
ByBlock
100
AcDbLine
 10
369.9999706694226
 20
1198.244902406218
 30
0.0
 11
349.9999706694226
 21
1203.603886206218
 31
0.0
  0
LINE
  5
51CA
330
507C
100
AcDbEntity
  8
0
  6
ByBlock
100
AcDbLine
 10
349.9999706694226
 20
1203.603886206218
 30
0.0
 11
369.9999706694226
 21
1208.962870006218
 31
0.0
  0
LINE
  5
51CB
330
507C
100
AcDbEntity
  8
0
  6
ByBlock
100
AcDbLine
 10
349.9999706694226
 20
1203.603886206218
 30
0.0
 11
369.9999706694226
 21
1203.603886206218
 31
0.0
  0
TEXT
  5
51CC
330
507C
100
AcDbEntity
  8
0
100
AcDbText
 10
408.3333006080826
 20
1218.603886206218
 30
0.0
 40
25.0
  1
175
100
AcDbText
  0
LINE
  5
51CD
330
507C
100
AcDbEntity
  8
0
  6
ByBlock
100
AcDbLine
 10
1144.999977458756
 20
1198.244902406218
 30
0.0
 11
1124.999977458757
 21
1203.603886206218
 31
0.0
  0
LINE
  5
51CE
330
507C
100
AcDbEntity
  8
0
  6
ByBlock
100
AcDbLine
 10
1124.999977458757
 20
1203.603886206218
 30
0.0
 11
1144.999977458756
 21
1208.962870006218
 31
0.0
  0
LINE
  5
51CF
330
507C
100
AcDbEntity
  8
0
  6
ByBlock
100
AcDbLine
 10
1124.999977458757
 20
1203.603886206218
 30
0.0
 11
1144.999977458756
 21
1203.603886206218
 31
0.0
  0
LINE
  5
51D0
330
507C
100
AcDbEntity
  8
0
  6
ByBlock
100
AcDbLine
 10
1279.99997066941
 20
1208.962870006218
 30
0.0
 11
1299.99997066941
 21
1203.603886206218
 31
0.0
  0
LINE
  5
51D1
330
507C
100
AcDbEntity
  8
0
  6
ByBlock
100
AcDbLine
 10
1299.99997066941
 20
1203.603886206218
 30
0.0
 11
1279.99997066941
 21
1198.244902406218
 31
0.0
  0
LINE
  5
51D2
330
507C
100
AcDbEntity
  8
0
  6
ByBlock
100
AcDbLine
 10
1299.99997066941
 20
1203.603886206218
 30
0.0
 11
1279.99997066941
 21
1203.603886206218
 31
0.0
  0
TEXT
  5
51D3
330
507C
100
AcDbEntity
  8
0
100
AcDbText
 10
1183.333307397417
 20
1218.603886206218
 30
0.0
 40
25.0
  1
175
100
AcDbText
  0
ENDSEC
  0
SECTION
  2
OBJECTS
  0
DICTIONARY
  5
5019
330
0
100
AcDbDictionary
281
     1
  3
ACAD_CIP_PREVIOUS_PRODUCT_INFO
350
50DC
  3
ACAD_COLOR
350
506F
  3
ACAD_DETAILVIEWSTYLE
350
5076
  3
ACAD_FIELDLIST
350
5124
  3
ACAD_GROUP
350
501A
  3
ACAD_LAYOUT
350
506E
  3
ACAD_MATERIAL
350
501D
  3
ACAD_MLEADERSTYLE
350
5072
  3
ACAD_MLINESTYLE
350
506B
  3
ACAD_PLOTSETTINGS
350
506D
  3
ACAD_PLOTSTYLENAME
350
501B
  3
ACAD_SCALELIST
350
504F
  3
ACAD_SECTIONVIEWSTYLE
350
5074
  3
ACAD_TABLESTYLE
350
5070
  3
ACAD_VISUALSTYLE
350
5036
  3
ACDB_RECOMPOSE_DATA
350
5288
  3
AcDbVariableDictionary
350
51D8
  3
AcmDictionary
350
5102
  3
AMG
350
50DD
  3
AMGSNAPSETTINGS
350
5139
  3
DWGPROPS
350
5289
  0
DICTIONARY
  5
51D4
330
5061
100
AcDbDictionary
280
     1
281
     1
  3
ADSK_XREC_LAYER_RECONCILED
360
51D5
  0
DICTIONARY
  5
51D6
330
5090
100
AcDbDictionary
280
     1
281
     1
  3
ADSK_XREC_LAYER_RECONCILED
360
51D7
  0
DICTIONARY
  5
51B8
330
507C
100
AcDbDictionary
280
     1
281
     1
  3
ACAD_SORTENTS
360
51B9
  0
XRECORD
  5
50DC
102
{ACAD_REACTORS
330
5019
102
}
330
5019
100
AcDbXrecord
280
     1
300
AMECH_PP
300
2021
300
87400AMECH_PP_2021_0F
  0
DICTIONARY
  5
506F
102
{ACAD_REACTORS
330
5019
102
}
330
5019
100
AcDbDictionary
281
     1
  0
DICTIONARY
  5
5076
102
{ACAD_REACTORS
330
5019
102
}
330
5019
100
AcDbDictionary
281
     1
  3
Imperial24
350
5077
  0
FIELDLIST
  5
5124
102
{ACAD_REACTORS
330
5019
102
}
330
5019
100
AcDbIdSet
 90
        8
330
526D
330
526E
330
526F
330
5270
330
5274
330
5275
330
5276
330
5277
100
AcDbFieldList
  0
DICTIONARY
  5
501A
102
{ACAD_REACTORS
330
5019
102
}
330
5019
100
AcDbDictionary
281
     1
  0
DICTIONARY
  5
506E
102
{ACAD_REACTORS
330
5019
102
}
330
5019
100
AcDbDictionary
281
     1
  3
Model
350
507F
  3
レイアウト1
350
507B
  0
DICTIONARY
  5
501D
102
{ACAD_REACTORS
330
5019
102
}
330
5019
100
AcDbDictionary
281
     1
  3
ByBlock
350
5026
  3
ByLayer
350
501E
  3
Global
350
502E
  0
DICTIONARY
  5
5072
102
{ACAD_REACTORS
330
5019
102
}
330
5019
100
AcDbDictionary
281
     1
  3
Standard
350
5073
  0
DICTIONARY
  5
506B
102
{ACAD_REACTORS
330
5019
102
}
330
5019
100
AcDbDictionary
281
     1
  3
Standard
350
506C
  0
DICTIONARY
  5
506D
102
{ACAD_REACTORS
330
5019
102
}
330
5019
100
AcDbDictionary
281
     1
  0
ACDBDICTIONARYWDFLT
  5
501B
102
{ACAD_REACTORS
330
5019
102
}
330
5019
100
AcDbDictionary
281
     1
  3
Normal
350
501C
100
AcDbDictionaryWithDefault
340
501C
  0
DICTIONARY
  5
504F
102
{ACAD_REACTORS
330
5019
102
}
330
5019
100
AcDbDictionary
281
     1
  3
A0
350
5050
  3
A1
350
5051
  3
A2
350
5052
  3
A3
350
5053
  3
A4
350
5054
  3
A5
350
5055
  3
A6
350
5056
  3
A7
350
5057
  3
A8
350
5058
  3
A9
350
5059
  3
B0
350
505A
  3
B1
350
505B
  3
B2
350
505C
  3
B3
350
505D
  3
B4
350
505E
  3
B5
350
505F
  3
B6
350
5060
  0
DICTIONARY
  5
5074
102
{ACAD_REACTORS
330
5019
102
}
330
5019
100
AcDbDictionary
281
     1
  3
Imperial24
350
5075
  0
DICTIONARY
  5
5070
102
{ACAD_REACTORS
330
5019
102
}
330
5019
100
AcDbDictionary
281
     1
  3
Standard
350
5071
  0
DICTIONARY
  5
5036
102
{ACAD_REACTORS
330
5019
102
}
330
5019
100
AcDbDictionary
281
     1
  3
2dWireframe
350
503C
  3
Basic
350
503B
  3
Brighten
350
5042
  3
ColorChange
350
5046
  3
Conceptual
350
503F
  3
Dim
350
5041
  3
EdgeColorOff
350
504E
  3
Facepattern
350
5045
  3
Flat
350
5037
  3
FlatWithEdges
350
5038
  3
Gouraud
350
5039
  3
GouraudWithEdges
350
503A
  3
Hidden
350
503E
  3
JitterOff
350
504C
  3
Linepattern
350
5044
  3
OverhangOff
350
504D
  3
Realistic
350
5040
  3
Shaded
350
504B
  3
Shaded with edges
350
504A
  3
Shades of Gray
350
5047
  3
Sketchy
350
5048
  3
Thicken
350
5043
  3
Wireframe
350
503D
  3
X-Ray
350
5049
  0
XRECORD
  5
5288
102
{ACAD_REACTORS
330
5019
102
}
330
5019
100
AcDbXrecord
280
     1
 90
        1
330
5071
  0
DICTIONARY
  5
51D8
102
{ACAD_REACTORS
330
5019
102
}
330
5019
100
AcDbDictionary
281
     1
  3
CANNOSCALE
350
51DE
  3
CMLEADERSTYLE
350
51DA
  3
CTABLESTYLE
350
51D9
  3
CVIEWDETAILSTYLE
350
51DB
  3
CVIEWSECTIONSTYLE
350
51DC
  3
DIMASSOC
350
5282
  3
INDEXCTL
350
5281
  3
LAYEREVAL
350
51E0
  3
LAYERNOTIFY
350
51E1
  3
LIGHTINGUNITS
350
51DF
  3
LOFTANG1
350
5283
  3
LOFTANG2
350
5284
  3
LONGITUDE
350
5285
  3
MSLTSCALE
350
51DD
  3
SORTENTS
350
5280
  3
XCLIPFRAME
350
5286
  0
DICTIONARY
  5
5102
102
{ACAD_REACTORS
330
5019
102
}
330
5019
100
AcDbDictionary
281
     1
  3
AcmStdDictionary
350
5109
  0
DICTIONARY
  5
50DD
102
{ACAD_REACTORS
330
5019
102
}
330
5019
100
AcDbDictionary
281
     1
  0
DICTIONARY
  5
5139
102
{ACAD_REACTORS
330
5019
102
}
330
5019
100
AcDbDictionary
281
     1
  0
XRECORD
  5
5289
102
{ACAD_REACTORS
330
5019
102
}
330
5019
100
AcDbXrecord
280
     1
  1
DWGPROPS COOKIE
  2

  3

  4

  6

  7

  8
watanabe-y
  9

300
=
301
=
302
=
303
=
304
=
305
=
306
=
307
=
308
=
309
=
 40
0.5645009606481482
 41
2452793.377199074
 42
2460019.698333333
  1

 90
        0
  0
XRECORD
  5
51D5
102
{ACAD_REACTORS
330
51D4
102
}
330
51D4
100
AcDbXrecord
280
     1
290
     1
  0
XRECORD
  5
51D7
102
{ACAD_REACTORS
330
51D6
102
}
330
51D6
100
AcDbXrecord
280
     1
290
     1
  0
SORTENTSTABLE
  5
51B9
102
{ACAD_REACTORS
330
51B8
102
}
330
51B8
100
AcDbSortentsTable
330
507C
331
51C0
  5
51CA
331
51C1
  5
51CB
331
51C2
  5
51CC
331
51C6
  5
51C0
331
51C7
  5
51C1
331
51C8
  5
51C2
331
51C9
  5
51C6
331
51CA
  5
51C7
331
51CB
  5
51C8
331
51CC
  5
51C9
  0
ACDBDETAILVIEWSTYLE
  5
5077
102
{ACAD_XDICTIONARY
360
52C0
102
}
102
{ACAD_REACTORS
330
5076
330
5268
102
}
330
5076
100
AcDbModelDocViewStyle
 70
     0
  3
Imperial24
290
     0
100
AcDbDetailViewStyle
 70
     0
 71
     0
 90
        3
 71
     1
340
5062
 40
0.24
340
0
 40
0.24
300

 40
0.36
280
     3
 71
     2
340
5069
 90
       25
 71
     3
340
5062
 40
0.24
 90
        1
 40
0.75
 90
        1
300
%<\AcVar ViewType \f "%tc1">% %<\AcVar ViewDetailId>%\PSCALE %<\AcVar ViewScale \f "%sn">%
 71
     4
340
5069
 90
       25
340
5069
 90
       25
280
     0
  0
LAYOUT
  5
507F
102
{ACAD_XDICTIONARY
360
52C4
102
}
102
{ACAD_REACTORS
330
506E
102
}
330
506E
100
AcDbPlotSettings
  1

  2
産機2F_DocuPrint 4050
  4

  6

 40
0.0
 41
0.0
 42
0.0
 43
0.0
 44
0.0
 45
0.0
 46
0.0
 47
0.0
 48
0.0
 49
0.0
140
0.0
141
0.0
142
1.0
143
1.0
 70
  1712
 72
     0
 73
     0
 74
     0
  7

 75
     0
147
1.0
148
0.0
149
0.0
100
AcDbLayout
  1
Model
 70
     1
 71
     0
 10
0.0
 20
0.0
 11
12.0
 21
9.0
 12
0.0
 22
0.0
 32
0.0
 14
0.0
 24
0.0
 34
0.0
 15
0.0
 25
0.0
 35
0.0
146
0.0
 13
0.0
 23
0.0
 33
0.0
 16
1.0
 26
0.0
 36
0.0
 17
0.0
 27
1.0
 37
0.0
 76
     0
330
507C
331
5080
  0
LAYOUT
  5
507B
102
{ACAD_XDICTIONARY
360
52C2
102
}
102
{ACAD_REACTORS
330
506E
102
}
330
506E
100
AcDbPlotSettings
  1

  2
産機2F_DocuPrint 4050
  4

  6

 40
0.0
 41
0.0
 42
0.0
 43
0.0
 44
0.0
 45
0.0
 46
0.0
 47
0.0
 48
0.0
 49
0.0
140
0.0
141
0.0
142
1.0
143
1.0
 70
   688
 72
     0
 73
     0
 74
     5
  7

 75
    16
147
1.0
148
0.0
149
0.0
100
AcDbLayout
  1
レイアウト1
 70
     0
 71
     1
 10
0.0
 20
0.0
 11
12.0
 21
9.0
 12
0.0
 22
0.0
 32
0.0
 14
1.000000000000000E+20
 24
1.000000000000000E+20
 34
1.000000000000000E+20
 15
-1.000000000000000E+20
 25
-1.000000000000000E+20
 35
-1.000000000000000E+20
146
0.0
 13
0.0
 23
0.0
 33
0.0
 16
1.0
 26
0.0
 36
0.0
 17
0.0
 27
1.0
 37
0.0
 76
     0
330
5078
  0
MATERIAL
  5
5026
102
{ACAD_XDICTIONARY
360
5027
102
}
102
{ACAD_REACTORS
330
501D
102
}
330
501D
100
AcDbMaterial
  1
ByBlock
 72
     0
 43
0.0208333333333333
 43
0.0
 43
0.0
 43
0.0
 43
0.0
 43
0.0208333333333333
 43
0.0
 43
0.0
 43
0.0
 43
0.0
 43
1.0
 43
0.0
 43
0.0
 43
0.0
 43
0.0
 43
1.0
 77
     0
 47
0.0208333333333333
 47
0.0
 47
0.0
 47
0.0
 47
0.0
 47
0.0208333333333333
 47
0.0
 47
0.0
 47
0.0
 47
0.0
 47
1.0
 47
0.0
 47
0.0
 47
0.0
 47
0.0
 47
1.0
171
     0
 49
0.0208333333333333
 49
0.0
 49
0.0
 49
0.0
 49
0.0
 49
0.0208333333333333
 49
0.0
 49
0.0
 49
0.0
 49
0.0
 49
1.0
 49
0.0
 49
0.0
 49
0.0
 49
0.0
 49
1.0
175
     0
142
0.0208333333333333
142
0.0
142
0.0
142
0.0
142
0.0
142
0.0208333333333333
142
0.0
142
0.0
142
0.0
142
0.0
142
1.0
142
0.0
142
0.0
142
0.0
142
0.0
142
1.0
179
     0
144
0.0208333333333333
144
0.0
144
0.0
144
0.0
144
0.0
144
0.0208333333333333
144
0.0
144
0.0
144
0.0
144
0.0
144
1.0
144
0.0
144
0.0
144
0.0
144
0.0
144
1.0
147
0.0208333333333333
147
0.0
147
0.0
147
0.0
147
0.0
147
0.0208333333333333
147
0.0
147
0.0
147
0.0
147
0.0
147
1.0
147
0.0
147
0.0
147
0.0
147
0.0
147
1.0
  0
MATERIAL
  5
501E
102
{ACAD_XDICTIONARY
360
501F
102
}
102
{ACAD_REACTORS
330
501D
102
}
330
501D
100
AcDbMaterial
  1
ByLayer
 72
     0
 43
0.0208333333333333
 43
0.0
 43
0.0
 43
0.0
 43
0.0
 43
0.0208333333333333
 43
0.0
 43
0.0
 43
0.0
 43
0.0
 43
1.0
 43
0.0
 43
0.0
 43
0.0
 43
0.0
 43
1.0
 77
     0
 47
0.0208333333333333
 47
0.0
 47
0.0
 47
0.0
 47
0.0
 47
0.0208333333333333
 47
0.0
 47
0.0
 47
0.0
 47
0.0
 47
1.0
 47
0.0
 47
0.0
 47
0.0
 47
0.0
 47
1.0
171
     0
 49
0.0208333333333333
 49
0.0
 49
0.0
 49
0.0
 49
0.0
 49
0.0208333333333333
 49
0.0
 49
0.0
 49
0.0
 49
0.0
 49
1.0
 49
0.0
 49
0.0
 49
0.0
 49
0.0
 49
1.0
175
     0
142
0.0208333333333333
142
0.0
142
0.0
142
0.0
142
0.0
142
0.0208333333333333
142
0.0
142
0.0
142
0.0
142
0.0
142
1.0
142
0.0
142
0.0
142
0.0
142
0.0
142
1.0
179
     0
144
0.0208333333333333
144
0.0
144
0.0
144
0.0
144
0.0
144
0.0208333333333333
144
0.0
144
0.0
144
0.0
144
0.0
144
1.0
144
0.0
144
0.0
144
0.0
144
0.0
144
1.0
147
0.0208333333333333
147
0.0
147
0.0
147
0.0
147
0.0
147
0.0208333333333333
147
0.0
147
0.0
147
0.0
147
0.0
147
1.0
147
0.0
147
0.0
147
0.0
147
0.0
147
1.0
  0
MATERIAL
  5
502E
102
{ACAD_XDICTIONARY
360
502F
102
}
102
{ACAD_REACTORS
330
501D
102
}
330
501D
100
AcDbMaterial
  1
Global
 72
     0
 43
0.0208333333333333
 43
0.0
 43
0.0
 43
0.0
 43
0.0
 43
0.0208333333333333
 43
0.0
 43
0.0
 43
0.0
 43
0.0
 43
1.0
 43
0.0
 43
0.0
 43
0.0
 43
0.0
 43
1.0
 77
     0
 47
0.0208333333333333
 47
0.0
 47
0.0
 47
0.0
 47
0.0
 47
0.0208333333333333
 47
0.0
 47
0.0
 47
0.0
 47
0.0
 47
1.0
 47
0.0
 47
0.0
 47
0.0
 47
0.0
 47
1.0
171
     0
 49
0.0208333333333333
 49
0.0
 49
0.0
 49
0.0
 49
0.0
 49
0.0208333333333333
 49
0.0
 49
0.0
 49
0.0
 49
0.0
 49
1.0
 49
0.0
 49
0.0
 49
0.0
 49
0.0
 49
1.0
175
     0
142
0.0208333333333333
142
0.0
142
0.0
142
0.0
142
0.0
142
0.0208333333333333
142
0.0
142
0.0
142
0.0
142
0.0
142
1.0
142
0.0
142
0.0
142
0.0
142
0.0
142
1.0
179
     0
144
0.0208333333333333
144
0.0
144
0.0
144
0.0
144
0.0
144
0.0208333333333333
144
0.0
144
0.0
144
0.0
144
0.0
144
1.0
144
0.0
144
0.0
144
0.0
144
0.0
144
1.0
147
0.0208333333333333
147
0.0
147
0.0
147
0.0
147
0.0
147
0.0208333333333333
147
0.0
147
0.0
147
0.0
147
0.0
147
1.0
147
0.0
147
0.0
147
0.0
147
0.0
147
1.0
  0
MLEADERSTYLE
  5
5073
102
{ACAD_REACTORS
330
5072
102
}
330
5072
100
AcDbMLeaderStyle
170
     2
171
     1
172
     0
 90
        2
 40
0.0
 41
0.0
173
     1
 91
-1056964608
340
5067
 92
       -2
290
     1
 42
0.09
291
     1
 43
0.36
  3
Standard
 44
0.18
300

342
5062
174
     1
178
     6
175
     1
176
     0
 93
-1056964608
 45
0.18
292
     0
297
     0
 46
0.18
 94
-1056964608
 47
1.0
 49
1.0
140
1.0
293
     1
141
0.0
294
     1
177
     0
142
1.0
295
     0
296
     0
143
0.125
1001
ACAD_MLEADERVER
1070
     2
  0
MLINESTYLE
  5
506C
102
{ACAD_REACTORS
330
506B
102
}
330
506B
100
AcDbMlineStyle
  2
STANDARD
 70
     0
  3

 62
   256
 51
90.0
 52
90.0
 71
     2
 49
0.5
 62
   256
  6
BYLAYER
 49
-0.5
 62
   256
  6
BYLAYER
  0
ACDBPLACEHOLDER
  5
501C
102
{ACAD_REACTORS
330
501B
102
}
330
501B
  0
SCALE
  5
5050
102
{ACAD_REACTORS
330
504F
102
}
330
504F
100
AcDbScale
 70
     0
300
1:1
140
1.0
141
1.0
290
     1
  0
SCALE
  5
5051
102
{ACAD_REACTORS
330
504F
102
}
330
504F
100
AcDbScale
 70
     0
300
1/128" = 1'-0"
140
0.0078125
141
12.0
290
     0
  0
SCALE
  5
5052
102
{ACAD_REACTORS
330
504F
102
}
330
504F
100
AcDbScale
 70
     0
300
1/64" = 1'-0"
140
0.015625
141
12.0
290
     0
  0
SCALE
  5
5053
102
{ACAD_REACTORS
330
504F
102
}
330
504F
100
AcDbScale
 70
     0
300
1/32" = 1'-0"
140
0.03125
141
12.0
290
     0
  0
SCALE
  5
5054
102
{ACAD_REACTORS
330
504F
102
}
330
504F
100
AcDbScale
 70
     0
300
1/16" = 1'-0"
140
0.0625
141
12.0
290
     0
  0
SCALE
  5
5055
102
{ACAD_REACTORS
330
504F
102
}
330
504F
100
AcDbScale
 70
     0
300
3/32" = 1'-0"
140
0.09375
141
12.0
290
     0
  0
SCALE
  5
5056
102
{ACAD_REACTORS
330
504F
102
}
330
504F
100
AcDbScale
 70
     0
300
1/8" = 1'-0"
140
0.125
141
12.0
290
     0
  0
SCALE
  5
5057
102
{ACAD_REACTORS
330
504F
102
}
330
504F
100
AcDbScale
 70
     0
300
3/16" = 1'-0"
140
0.1875
141
12.0
290
     0
  0
SCALE
  5
5058
102
{ACAD_REACTORS
330
504F
102
}
330
504F
100
AcDbScale
 70
     0
300
1/4" = 1'-0"
140
0.25
141
12.0
290
     0
  0
SCALE
  5
5059
102
{ACAD_REACTORS
330
504F
102
}
330
504F
100
AcDbScale
 70
     0
300
3/8" = 1'-0"
140
0.375
141
12.0
290
     0
  0
SCALE
  5
505A
102
{ACAD_REACTORS
330
504F
102
}
330
504F
100
AcDbScale
 70
     0
300
1/2" = 1'-0"
140
0.5
141
12.0
290
     0
  0
SCALE
  5
505B
102
{ACAD_REACTORS
330
504F
102
}
330
504F
100
AcDbScale
 70
     0
300
3/4" = 1'-0"
140
0.75
141
12.0
290
     0
  0
SCALE
  5
505C
102
{ACAD_REACTORS
330
504F
102
}
330
504F
100
AcDbScale
 70
     0
300
1" = 1'-0"
140
1.0
141
12.0
290
     0
  0
SCALE
  5
505D
102
{ACAD_REACTORS
330
504F
102
}
330
504F
100
AcDbScale
 70
     0
300
1-1/2" = 1'-0"
140
1.5
141
12.0
290
     0
  0
SCALE
  5
505E
102
{ACAD_REACTORS
330
504F
102
}
330
504F
100
AcDbScale
 70
     0
300
3" = 1'-0"
140
3.0
141
12.0
290
     0
  0
SCALE
  5
505F
102
{ACAD_REACTORS
330
504F
102
}
330
504F
100
AcDbScale
 70
     0
300
6" = 1'-0"
140
6.0
141
12.0
290
     0
  0
SCALE
  5
5060
102
{ACAD_REACTORS
330
504F
102
}
330
504F
100
AcDbScale
 70
     0
300
1'-0" = 1'-0"
140
12.0
141
12.0
290
     0
  0
ACDBSECTIONVIEWSTYLE
  5
5075
102
{ACAD_XDICTIONARY
360
52BE
102
}
102
{ACAD_REACTORS
330
5074
330
5267
102
}
330
5074
100
AcDbModelDocViewStyle
 70
     0
  3
Imperial24
290
     0
100
AcDbSectionViewStyle
 70
     0
 71
     0
 90
       78
 71
     1
340
5062
 40
0.24
340
0
340
0
 40
0.24
300
I, O, Q, S, X, Z
 40
0.48
 90
        3
 40
0.18
 90
        1
 71
     2
340
5069
 90
       25
340
5069
 90
       50
 40
0.24
 40
0.0
 40
0.24
 71
     3
340
5062
 40
0.24
 90
        1
 40
0.75
 90
        1
300
%<\AcVar ViewType \f "%tc1">% %<\AcVar ViewSectionStartId>%-%<\AcVar ViewSectionEndId>%\PSCALE %<\AcVar ViewScale \f "%sn">%
 71
     4
300
ANSI31
 40
1.0
 90
        0
290
     0
290
     0
 90
        6
 40
0.0
 40
1.570796326794896
 40
0.2617993877991494
 40
1.308996938995747
 40
-0.2617993877991494
 40
1.832595714594045
  0
TABLESTYLE
  5
5071
102
{ACAD_XDICTIONARY
360
51E3
102
}
102
{ACAD_REACTORS
330
5070
102
}
330
5070
100
AcDbTableStyle
  3
Standard
 70
     0
 71
     0
 40
0.06
 41
0.06
280
     0
281
     0
  7
STANDARD
140
0.18
170
     2
 62
     0
 63
     7
283
     0
274
    -2
284
     1
 64
     0
275
    -2
285
     1
 65
     0
276
    -2
286
     1
 66
     0
277
    -2
287
     1
 67
     0
278
    -2
288
     1
 68
     0
279
    -2
289
     1
 69
     0
  7
STANDARD
140
0.25
170
     5
 62
     0
 63
     7
283
     0
274
    -2
284
     1
 64
     0
275
    -2
285
     1
 65
     0
276
    -2
286
     1
 66
     0
277
    -2
287
     1
 67
     0
278
    -2
288
     1
 68
     0
279
    -2
289
     1
 69
     0
  7
STANDARD
140
0.18
170
     5
 62
     0
 63
     7
283
     0
274
    -2
284
     1
 64
     0
275
    -2
285
     1
 65
     0
276
    -2
286
     1
 66
     0
277
    -2
287
     1
 67
     0
278
    -2
288
     1
 68
     0
279
    -2
289
     1
 69
     0
  0
VISUALSTYLE
  5
503C
102
{ACAD_XDICTIONARY
360
5297
102
}
102
{ACAD_REACTORS
330
5036
102
}
330
5036
100
AcDbVisualStyle
  2

 70
     4
 71
     0
 72
     2
 73
     0
 90
        0
 40
-0.6
 41
-30.0
 62
     5
 63
     7
 74
     1
 91
        4
 64
     7
 65
   257
 75
     1
175
     1
 42
1.0
 92
        0
 66
   257
 43
1.0
 76
     1
 77
     6
 78
     2
 67
     7
 79
     5
170
     0
171
     0
290
     0
174
     0
 93
        1
 44
0.0
173
     0
291
     0
 45
0.0
1001
ACAD
1000
AcDbSavedByObjectVersion
1070
     0
  0
VISUALSTYLE
  5
503B
102
{ACAD_XDICTIONARY
360
5295
102
}
102
{ACAD_REACTORS
330
5036
102
}
330
5036
100
AcDbVisualStyle
  2

 70
     7
 71
     1
 72
     0
 73
     1
 90
        0
 40
-0.6
 41
-30.0
 62
     5
 63
     7
 74
     0
 91
        4
 64
     7
 65
   257
 75
     1
175
     1
 42
1.0
 92
        8
 66
     7
 43
1.0
 76
     1
 77
     6
 78
     2
 67
     7
 79
     5
170
     0
171
     0
290
     0
174
     0
 93
        1
 44
0.0
173
     0
291
     1
 45
0.0
1001
ACAD
1000
AcDbSavedByObjectVersion
1070
     0
  0
VISUALSTYLE
  5
5042
102
{ACAD_XDICTIONARY
360
52A3
102
}
102
{ACAD_REACTORS
330
5036
102
}
330
5036
100
AcDbVisualStyle
  2

 70
    12
 71
     2
 72
     2
 73
     0
 90
        0
 40
-0.6
 41
-30.0
 62
     5
 63
     7
 74
     1
 91
        4
 64
     7
 65
   257
 75
     1
175
     1
 42
1.0
 92
        8
 66
     7
 43
1.0
 76
     1
 77
     6
 78
     2
 67
     7
 79
     5
170
     0
171
     0
290
     0
174
     0
 93
        1
 44
50.0
173
     0
291
     1
 45
0.0
1001
ACAD
1000
AcDbSavedByObjectVersion
1070
     0
  0
VISUALSTYLE
  5
5046
102
{ACAD_XDICTIONARY
360
52AB
102
}
102
{ACAD_REACTORS
330
5036
102
}
330
5036
100
AcDbVisualStyle
  2

 70
    16
 71
     2
 72
     2
 73
     3
 90
        0
 40
-0.6
 41
-30.0
 62
     5
 63
     8
 74
     1
 91
        4
 64
     7
 65
   257
 75
     1
175
     1
 42
1.0
 92
        8
 66
     8
 43
1.0
 76
     1
 77
     6
 78
     2
 67
     7
 79
     5
170
     0
171
     0
290
     0
174
     0
 93
        1
 44
0.0
173
     0
291
     1
 45
0.0
1001
ACAD
1000
AcDbSavedByObjectVersion
1070
     0
  0
VISUALSTYLE
  5
503F
102
{ACAD_XDICTIONARY
360
529D
102
}
102
{ACAD_REACTORS
330
5036
102
}
330
5036
100
AcDbVisualStyle
  2

 70
     9
 71
     3
 72
     2
 73
     0
 90
        0
 40
-0.6
 41
-30.0
 62
     5
 63
     7
 74
     2
 91
        2
 64
     7
 65
   257
 75
     1
175
     1
 42
179.0
 92
        8
 66
     7
 43
1.0
 76
     1
 77
     6
 78
     2
 67
     7
 79
     3
170
     0
171
     0
290
     0
174
     0
 93
        1
 44
0.0
173
     0
291
     0
 45
0.0
1001
ACAD
1000
AcDbSavedByObjectVersion
1070
     0
  0
VISUALSTYLE
  5
5041
102
{ACAD_XDICTIONARY
360
52A1
102
}
102
{ACAD_REACTORS
330
5036
102
}
330
5036
100
AcDbVisualStyle
  2

 70
    11
 71
     2
 72
     2
 73
     0
 90
        0
 40
-0.6
 41
-30.0
 62
     5
 63
     7
 74
     1
 91
        4
 64
     7
 65
   257
 75
     1
175
     1
 42
1.0
 92
        8
 66
     7
 43
1.0
 76
     1
 77
     6
 78
     2
 67
     7
 79
     5
170
     0
171
     0
290
     0
174
     0
 93
        1
 44
-50.0
173
     0
291
     1
 45
0.0
1001
ACAD
1000
AcDbSavedByObjectVersion
1070
     0
  0
VISUALSTYLE
  5
504E
102
{ACAD_XDICTIONARY
360
52BB
102
}
102
{ACAD_REACTORS
330
5036
102
}
330
5036
100
AcDbVisualStyle
  2

 70
    22
 71
     2
 72
     2
 73
     0
 90
        0
 40
-0.6
 41
-30.0
 62
     5
 63
     7
 74
     1
 91
        4
 64
     7
 65
   257
 75
     1
175
     1
 42
1.0
 92
        8
 66
     7
 43
1.0
 76
     1
 77
     6
 78
     2
 67
     7
 79
     5
170
     0
171
     0
290
     0
174
     0
 93
        1
 44
0.0
173
     0
291
     1
 45
0.0
1001
ACAD
1000
AcDbSavedByObjectVersion
1070
     0
  0
VISUALSTYLE
  5
5045
102
{ACAD_XDICTIONARY
360
52A9
102
}
102
{ACAD_REACTORS
330
5036
102
}
330
5036
100
AcDbVisualStyle
  2

 70
    15
 71
     2
 72
     2
 73
     0
 90
        0
 40
-0.6
 41
-30.0
 62
     5
 63
     7
 74
     1
 91
        4
 64
     7
 65
   257
 75
     1
175
     1
 42
1.0
 92
        8
 66
     7
 43
1.0
 76
     1
 77
     6
 78
     2
 67
     7
 79
     5
170
     0
171
     0
290
     0
174
     0
 93
        1
 44
0.0
173
     0
291
     1
 45
0.0
1001
ACAD
1000
AcDbSavedByObjectVersion
1070
     0
  0
VISUALSTYLE
  5
5037
102
{ACAD_XDICTIONARY
360
528D
102
}
102
{ACAD_REACTORS
330
5036
102
}
330
5036
100
AcDbVisualStyle
  2

 70
     0
 71
     2
 72
     1
 73
     1
 90
        2
 40
-0.6
 41
30.0
 62
     5
 63
     7
 74
     0
 91
        0
 64
     7
 65
   257
 75
     1
175
     1
 42
1.0
 92
        8
 66
     7
 43
1.0
 76
     1
 77
     6
 78
     2
 67
     7
 79
     5
170
     0
171
     0
290
     0
174
     0
 93
       13
 44
0.0
173
     0
291
     1
 45
0.0
1001
ACAD
1000
AcDbSavedByObjectVersion
1070
     0
  0
VISUALSTYLE
  5
5038
102
{ACAD_XDICTIONARY
360
528F
102
}
102
{ACAD_REACTORS
330
5036
102
}
330
5036
100
AcDbVisualStyle
  2

 70
     1
 71
     2
 72
     1
 73
     1
 90
        2
 40
-0.6
 41
30.0
 62
     5
 63
     7
 74
     1
 91
        0
 64
     7
 65
   257
 75
     1
175
     1
 42
1.0
 92
        0
 66
   257
 43
1.0
 76
     1
 77
     6
 78
     2
 67
     7
 79
     5
170
     0
171
     0
290
     0
174
     0
 93
       13
 44
0.0
173
     0
291
     1
 45
0.0
1001
ACAD
1000
AcDbSavedByObjectVersion
1070
     0
  0
VISUALSTYLE
  5
5039
102
{ACAD_XDICTIONARY
360
5291
102
}
102
{ACAD_REACTORS
330
5036
102
}
330
5036
100
AcDbVisualStyle
  2

 70
     2
 71
     2
 72
     2
 73
     1
 90
        2
 40
-0.6
 41
30.0
 62
     5
 63
     7
 74
     0
 91
        0
 64
     7
 65
   257
 75
     1
175
     1
 42
1.0
 92
        0
 66
     7
 43
1.0
 76
     1
 77
     6
 78
     2
 67
     7
 79
     5
170
     0
171
     0
290
     0
174
     0
 93
       13
 44
0.0
173
     0
291
     1
 45
0.0
1001
ACAD
1000
AcDbSavedByObjectVersion
1070
     0
  0
VISUALSTYLE
  5
503A
102
{ACAD_XDICTIONARY
360
5293
102
}
102
{ACAD_REACTORS
330
5036
102
}
330
5036
100
AcDbVisualStyle
  2

 70
     3
 71
     2
 72
     2
 73
     1
 90
        2
 40
-0.6
 41
30.0
 62
     5
 63
     7
 74
     1
 91
        0
 64
     7
 65
   257
 75
     1
175
     1
 42
1.0
 92
        0
 66
   257
 43
1.0
 76
     1
 77
     6
 78
     2
 67
     7
 79
     5
170
     0
171
     0
290
     0
174
     0
 93
       13
 44
0.0
173
     0
291
     1
 45
0.0
1001
ACAD
1000
AcDbSavedByObjectVersion
1070
     0
  0
VISUALSTYLE
  5
503E
102
{ACAD_XDICTIONARY
360
529B
102
}
102
{ACAD_REACTORS
330
5036
102
}
330
5036
100
AcDbVisualStyle
  2

 70
     6
 71
     1
 72
     2
 73
     2
 90
        0
 40
-0.6
 41
-30.0
 62
     5
 63
     7
 74
     2
 91
        2
 64
     7
 65
   257
 75
     2
175
     1
 42
40.0
 92
        0
 66
   257
 43
1.0
 76
     1
 77
     6
 78
     2
 67
     7
 79
     3
170
     0
171
     0
290
     0
174
     0
 93
        1
 44
0.0
173
     0
291
     0
 45
0.0
1001
ACAD
1000
AcDbSavedByObjectVersion
1070
     0
  0
VISUALSTYLE
  5
504C
102
{ACAD_XDICTIONARY
360
52B7
102
}
102
{ACAD_REACTORS
330
5036
102
}
330
5036
100
AcDbVisualStyle
  2

 70
    20
 71
     2
 72
     2
 73
     0
 90
        0
 40
-0.6
 41
-30.0
 62
     5
 63
     7
 74
     1
 91
        4
 64
     7
 65
   257
 75
     1
175
     1
 42
1.0
 92
       10
 66
     7
 43
1.0
 76
     1
 77
     6
 78
     2
 67
     7
 79
     5
170
     0
171
     0
290
     0
174
     0
 93
        1
 44
0.0
173
     0
291
     1
 45
0.0
1001
ACAD
1000
AcDbSavedByObjectVersion
1070
     0
  0
VISUALSTYLE
  5
5044
102
{ACAD_XDICTIONARY
360
52A7
102
}
102
{ACAD_REACTORS
330
5036
102
}
330
5036
100
AcDbVisualStyle
  2

 70
    14
 71
     2
 72
     2
 73
     0
 90
        0
 40
-0.6
 41
-30.0
 62
     5
 63
     7
 74
     1
 91
        4
 64
     7
 65
   257
 75
     7
175
     7
 42
1.0
 92
        8
 66
     7
 43
1.0
 76
     1
 77
     6
 78
     2
 67
     7
 79
     5
170
     0
171
     0
290
     0
174
     0
 93
        1
 44
0.0
173
     0
291
     1
 45
0.0
1001
ACAD
1000
AcDbSavedByObjectVersion
1070
     0
  0
VISUALSTYLE
  5
504D
102
{ACAD_XDICTIONARY
360
52B9
102
}
102
{ACAD_REACTORS
330
5036
102
}
330
5036
100
AcDbVisualStyle
  2

 70
    21
 71
     2
 72
     2
 73
     0
 90
        0
 40
-0.6
 41
-30.0
 62
     5
 63
     7
 74
     1
 91
        4
 64
     7
 65
   257
 75
     1
175
     1
 42
1.0
 92
        9
 66
     7
 43
1.0
 76
     1
 77
     6
 78
     2
 67
     7
 79
     5
170
     0
171
     0
290
     0
174
     0
 93
        1
 44
0.0
173
     0
291
     1
 45
0.0
1001
ACAD
1000
AcDbSavedByObjectVersion
1070
     0
  0
VISUALSTYLE
  5
5040
102
{ACAD_XDICTIONARY
360
529F
102
}
102
{ACAD_REACTORS
330
5036
102
}
330
5036
100
AcDbVisualStyle
  2

 70
     8
 71
     2
 72
     3
 73
     0
 90
        2
 40
-0.6
 41
30.0
 62
     5
 63
     7
 74
     0
 91
        0
 64
     7
 65
   257
 75
     1
175
     1
 42
1.0
 92
        8
 66
   257
 43
1.0
 76
     1
 77
     6
 78
     2
 67
     7
 79
     3
170
     0
171
     0
290
     0
174
     0
 93
       13
 44
0.0
173
     0
291
     0
 45
0.0
1001
ACAD
1000
AcDbSavedByObjectVersion
1070
     0
  0
VISUALSTYLE
  5
504B
102
{ACAD_XDICTIONARY
360
52B5
102
}
102
{ACAD_REACTORS
330
5036
102
}
330
5036
100
AcDbVisualStyle
  2

 70
    27
 71
     2
 72
     2
 73
     1
 90
        2
 40
-0.6
 41
30.0
 62
     5
 63
     7
 74
     0
 91
        4
 64
     7
 65
   257
 75
     1
175
     1
 42
1.0
 92
        8
 66
   257
 43
1.0
 76
     1
 77
     6
 78
     2
 67
     8
 79
     3
170
     0
171
     0
290
     0
174
     0
 93
        5
 44
0.0
173
     0
291
     0
 45
0.0
1001
ACAD
1000
AcDbSavedByObjectVersion
1070
     0
  0
VISUALSTYLE
  5
504A
102
{ACAD_XDICTIONARY
360
52B3
102
}
102
{ACAD_REACTORS
330
5036
102
}
330
5036
100
AcDbVisualStyle
  2

 70
    26
 71
     2
 72
     2
 73
     1
 90
        2
 40
-0.6
 41
30.0
 62
     5
 63
     7
 74
     1
 91
        2
 64
     7
 65
   257
 75
     2
175
     1
 42
1.0
 92
        8
 66
   257
 43
1.0
 76
     1
 77
     6
 78
     2
 67
     7
 79
     3
170
     0
171
     0
290
     0
174
     0
 93
        5
 44
0.0
173
     0
291
     0
 45
0.0
1001
ACAD
1000
AcDbSavedByObjectVersion
1070
     0
  0
VISUALSTYLE
  5
5047
102
{ACAD_XDICTIONARY
360
52AD
102
}
102
{ACAD_REACTORS
330
5036
102
}
330
5036
100
AcDbVisualStyle
  2

 70
    23
 71
     2
 72
     2
 73
     3
 90
        0
 40
-0.6
 41
-30.0
 62
     5
 63
     7
 74
     2
 91
        2
 64
     7
 65
     7
 75
     1
175
     1
 42
40.0
 92
        8
 66
     7
 43
1.0
 76
     1
 77
     6
 78
     2
 67
     7
 79
     3
170
     0
171
     0
290
     0
174
     0
 93
        1
 44
0.0
173
     0
291
     0
 45
0.0
1001
ACAD
1000
AcDbSavedByObjectVersion
1070
     0
  0
VISUALSTYLE
  5
5048
102
{ACAD_XDICTIONARY
360
52AF
102
}
102
{ACAD_REACTORS
330
5036
102
}
330
5036
100
AcDbVisualStyle
  2

 70
    24
 71
     1
 72
     2
 73
     2
 90
        0
 40
-0.6
 41
-30.0
 62
     5
 63
     7
 74
     2
 91
        2
 64
     7
 65
     7
 75
     1
175
     1
 42
40.0
 92
       11
 66
     7
 43
1.0
 76
     1
 77
     6
 78
     2
 67
     7
 79
     6
170
     0
171
     0
290
     0
174
     0
 93
        1
 44
0.0
173
     0
291
     0
 45
0.0
1001
ACAD
1000
AcDbSavedByObjectVersion
1070
     0
  0
VISUALSTYLE
  5
5043
102
{ACAD_XDICTIONARY
360
52A5
102
}
102
{ACAD_REACTORS
330
5036
102
}
330
5036
100
AcDbVisualStyle
  2

 70
    13
 71
     2
 72
     2
 73
     0
 90
        0
 40
-0.6
 41
-30.0
 62
     5
 63
     7
 74
     1
 91
        4
 64
     7
 65
   257
 75
     1
175
     1
 42
1.0
 92
       12
 66
     7
 43
1.0
 76
     1
 77
     6
 78
     2
 67
     7
 79
     5
170
     0
171
     0
290
     0
174
     0
 93
        1
 44
0.0
173
     0
291
     1
 45
0.0
1001
ACAD
1000
AcDbSavedByObjectVersion
1070
     0
  0
VISUALSTYLE
  5
503D
102
{ACAD_XDICTIONARY
360
5299
102
}
102
{ACAD_REACTORS
330
5036
102
}
330
5036
100
AcDbVisualStyle
  2

 70
     5
 71
     0
 72
     2
 73
     0
 90
        0
 40
-0.6
 41
-30.0
 62
     5
 63
     7
 74
     1
 91
        4
 64
     7
 65
   257
 75
     1
175
     1
 42
1.0
 92
        0
 66
   257
 43
1.0
 76
     1
 77
     6
 78
     2
 67
     7
 79
     3
170
     0
171
     0
290
     0
174
     0
 93
        1
 44
0.0
173
     0
291
     0
 45
0.0
1001
ACAD
1000
AcDbSavedByObjectVersion
1070
     0
  0
VISUALSTYLE
  5
5049
102
{ACAD_XDICTIONARY
360
52B1
102
}
102
{ACAD_REACTORS
330
5036
102
}
330
5036
100
AcDbVisualStyle
  2

 70
    25
 71
     2
 72
     2
 73
     1
 90
        1
 40
0.5
 41
-30.0
 62
     5
 63
     7
 74
     1
 91
        0
 64
     7
 65
   257
 75
     1
175
     1
 42
1.0
 92
        8
 66
     7
 43
1.0
 76
     1
 77
     6
 78
     2
 67
     7
 79
     3
170
     0
171
     0
290
     0
174
     0
 93
       13
 44
0.0
173
     0
291
     0
 45
0.0
1001
ACAD
1000
AcDbSavedByObjectVersion
1070
     0
  0
DICTIONARYVAR
  5
51DE
102
{ACAD_REACTORS
330
51D8
102
}
330
51D8
100
DictionaryVariables
280
     0
  1
1:1
  0
DICTIONARYVAR
  5
51DA
102
{ACAD_REACTORS
330
51D8
102
}
330
51D8
100
DictionaryVariables
280
     0
  1
STANDARD
  0
DICTIONARYVAR
  5
51D9
102
{ACAD_REACTORS
330
51D8
102
}
330
51D8
100
DictionaryVariables
280
     0
  1
STANDARD
  0
DICTIONARYVAR
  5
51DB
102
{ACAD_REACTORS
330
51D8
102
}
330
51D8
100
DictionaryVariables
280
     0
  1
Imperial24
  0
DICTIONARYVAR
  5
51DC
102
{ACAD_REACTORS
330
51D8
102
}
330
51D8
100
DictionaryVariables
280
     0
  1
Imperial24
  0
DICTIONARYVAR
  5
5282
102
{ACAD_REACTORS
330
51D8
102
}
330
51D8
100
DictionaryVariables
280
     0
  1
1
  0
DICTIONARYVAR
  5
5281
102
{ACAD_REACTORS
330
51D8
102
}
330
51D8
100
DictionaryVariables
280
     0
  1
0
  0
DICTIONARYVAR
  5
51E0
102
{ACAD_REACTORS
330
51D8
102
}
330
51D8
100
DictionaryVariables
280
     0
  1
1
  0
DICTIONARYVAR
  5
51E1
102
{ACAD_REACTORS
330
51D8
102
}
330
51D8
100
DictionaryVariables
280
     0
  1
15
  0
DICTIONARYVAR
  5
51DF
102
{ACAD_REACTORS
330
51D8
102
}
330
51D8
100
DictionaryVariables
280
     0
  1
0
  0
DICTIONARYVAR
  5
5283
102
{ACAD_REACTORS
330
51D8
102
}
330
51D8
100
DictionaryVariables
280
     0
  1
1.570796
  0
DICTIONARYVAR
  5
5284
102
{ACAD_REACTORS
330
51D8
102
}
330
51D8
100
DictionaryVariables
280
     0
  1
1.570796
  0
DICTIONARYVAR
  5
5285
102
{ACAD_REACTORS
330
51D8
102
}
330
51D8
100
DictionaryVariables
280
     0
  1
-122.394000
  0
DICTIONARYVAR
  5
51DD
102
{ACAD_REACTORS
330
51D8
102
}
330
51D8
100
DictionaryVariables
280
     0
  1
0
  0
DICTIONARYVAR
  5
5280
102
{ACAD_REACTORS
330
51D8
102
}
330
51D8
100
DictionaryVariables
280
     0
  1
127
  0
DICTIONARYVAR
  5
5286
102
{ACAD_REACTORS
330
51D8
102
}
330
51D8
100
DictionaryVariables
280
     0
  1
2
  0
DICTIONARY
  5
5109
102
{ACAD_REACTORS
330
5102
102
}
330
5102
100
AcDbDictionary
281
     1
  0
DICTIONARY
  5
52C0
330
5077
100
AcDbDictionary
280
     1
281
     1
  3
ACAD_XREC_ROUNDTRIP
360
52C1
  0
DICTIONARY
  5
52C4
330
507F
100
AcDbDictionary
280
     1
281
     1
  3
ACAD_XREC_ROUNDTRIP
360
52C5
  0
DICTIONARY
  5
52C2
330
507B
100
AcDbDictionary
280
     1
281
     1
  3
ACAD_XREC_ROUNDTRIP
360
52C3
  0
DICTIONARY
  5
5027
330
5026
100
AcDbDictionary
280
     1
281
     1
  3
ACAD_XREC_ROUNDTRIP
360
528B
  3
BUMPTILE
360
5029
  3
DIFFUSETILE
360
5028
  3
OPACITYTILE
360
502C
  3
REFLECTIONTILE
360
502B
  3
REFRACTIONTILE
360
502D
  3
SPECULARTILE
360
502A
  0
DICTIONARY
  5
501F
330
501E
100
AcDbDictionary
280
     1
281
     1
  3
ACAD_XREC_ROUNDTRIP
360
528A
  3
BUMPTILE
360
5021
  3
DIFFUSETILE
360
5020
  3
OPACITYTILE
360
5024
  3
REFLECTIONTILE
360
5023
  3
REFRACTIONTILE
360
5025
  3
SPECULARTILE
360
5022
  0
DICTIONARY
  5
502F
330
502E
100
AcDbDictionary
280
     1
281
     1
  3
ACAD_XREC_ROUNDTRIP
360
528C
  3
BUMPTILE
360
5031
  3
DIFFUSETILE
360
5030
  3
OPACITYTILE
360
5034
  3
REFLECTIONTILE
360
5033
  3
REFRACTIONTILE
360
5035
  3
SPECULARTILE
360
5032
  0
DICTIONARY
  5
52BE
330
5075
100
AcDbDictionary
280
     1
281
     1
  3
ACAD_XREC_ROUNDTRIP
360
52BF
  0
DICTIONARY
  5
51E3
330
5071
100
AcDbDictionary
280
     1
281
     1
  3
ACAD_ROUNDTRIP_2008_TABLESTYLE_CELLSTYLEMAP
360
5287
  3
ACAD_XREC_ROUNDTRIP
360
52BD
  0
DICTIONARY
  5
5297
330
503C
100
AcDbDictionary
280
     1
281
     1
  3
ACAD_XREC_ROUNDTRIP
360
5298
  0
DICTIONARY
  5
5295
330
503B
100
AcDbDictionary
280
     1
281
     1
  3
ACAD_XREC_ROUNDTRIP
360
5296
  0
DICTIONARY
  5
52A3
330
5042
100
AcDbDictionary
280
     1
281
     1
  3
ACAD_XREC_ROUNDTRIP
360
52A4
  0
DICTIONARY
  5
52AB
330
5046
100
AcDbDictionary
280
     1
281
     1
  3
ACAD_XREC_ROUNDTRIP
360
52AC
  0
DICTIONARY
  5
529D
330
503F
100
AcDbDictionary
280
     1
281
     1
  3
ACAD_XREC_ROUNDTRIP
360
529E
  0
DICTIONARY
  5
52A1
330
5041
100
AcDbDictionary
280
     1
281
     1
  3
ACAD_XREC_ROUNDTRIP
360
52A2
  0
DICTIONARY
  5
52BB
330
504E
100
AcDbDictionary
280
     1
281
     1
  3
ACAD_XREC_ROUNDTRIP
360
52BC
  0
DICTIONARY
  5
52A9
330
5045
100
AcDbDictionary
280
     1
281
     1
  3
ACAD_XREC_ROUNDTRIP
360
52AA
  0
DICTIONARY
  5
528D
330
5037
100
AcDbDictionary
280
     1
281
     1
  3
ACAD_XREC_ROUNDTRIP
360
528E
  0
DICTIONARY
  5
528F
330
5038
100
AcDbDictionary
280
     1
281
     1
  3
ACAD_XREC_ROUNDTRIP
360
5290
  0
DICTIONARY
  5
5291
330
5039
100
AcDbDictionary
280
     1
281
     1
  3
ACAD_XREC_ROUNDTRIP
360
5292
  0
DICTIONARY
  5
5293
330
503A
100
AcDbDictionary
280
     1
281
     1
  3
ACAD_XREC_ROUNDTRIP
360
5294
  0
DICTIONARY
  5
529B
330
503E
100
AcDbDictionary
280
     1
281
     1
  3
ACAD_XREC_ROUNDTRIP
360
529C
  0
DICTIONARY
  5
52B7
330
504C
100
AcDbDictionary
280
     1
281
     1
  3
ACAD_XREC_ROUNDTRIP
360
52B8
  0
DICTIONARY
  5
52A7
330
5044
100
AcDbDictionary
280
     1
281
     1
  3
ACAD_XREC_ROUNDTRIP
360
52A8
  0
DICTIONARY
  5
52B9
330
504D
100
AcDbDictionary
280
     1
281
     1
  3
ACAD_XREC_ROUNDTRIP
360
52BA
  0
DICTIONARY
  5
529F
330
5040
100
AcDbDictionary
280
     1
281
     1
  3
ACAD_XREC_ROUNDTRIP
360
52A0
  0
DICTIONARY
  5
52B5
330
504B
100
AcDbDictionary
280
     1
281
     1
  3
ACAD_XREC_ROUNDTRIP
360
52B6
  0
DICTIONARY
  5
52B3
330
504A
100
AcDbDictionary
280
     1
281
     1
  3
ACAD_XREC_ROUNDTRIP
360
52B4
  0
DICTIONARY
  5
52AD
330
5047
100
AcDbDictionary
280
     1
281
     1
  3
ACAD_XREC_ROUNDTRIP
360
52AE
  0
DICTIONARY
  5
52AF
330
5048
100
AcDbDictionary
280
     1
281
     1
  3
ACAD_XREC_ROUNDTRIP
360
52B0
  0
DICTIONARY
  5
52A5
330
5043
100
AcDbDictionary
280
     1
281
     1
  3
ACAD_XREC_ROUNDTRIP
360
52A6
  0
DICTIONARY
  5
5299
330
503D
100
AcDbDictionary
280
     1
281
     1
  3
ACAD_XREC_ROUNDTRIP
360
529A
  0
DICTIONARY
  5
52B1
330
5049
100
AcDbDictionary
280
     1
281
     1
  3
ACAD_XREC_ROUNDTRIP
360
52B2
  0
XRECORD
  5
52C1
102
{ACAD_REACTORS
330
52C0
102
}
330
52C0
100
AcDbXrecord
280
     1
102
DISPLAYNAME
  1
Imperial24
102
FLAGS
 90
        0
  0
XRECORD
  5
52C5
102
{ACAD_REACTORS
330
52C4
102
}
330
52C4
100
AcDbXrecord
280
     1
102
SHADEPLOT
 70
     0
102
SHADEPLOTRESLEVEL
 70
     2
102
SHADEPLOTCUSTOMDPI
 70
   300
  0
XRECORD
  5
52C3
102
{ACAD_REACTORS
330
52C2
102
}
330
52C2
100
AcDbXrecord
280
     1
102
SHADEPLOT
 70
     0
102
SHADEPLOTRESLEVEL
 70
     2
102
SHADEPLOTCUSTOMDPI
 70
   300
  0
XRECORD
  5
528B
102
{ACAD_REACTORS
330
5027
102
}
330
5027
100
AcDbXrecord
280
     1
102
MATERIAL
148
0.0
149
0.0
149
0.0
 93
        0
 94
      127
282
     0
 72
     0
 77
     0
171
     0
175
     0
179
     0
273
     0
  0
XRECORD
  5
5029
102
{ACAD_REACTORS
330
5027
102
}
330
5027
100
AcDbXrecord
280
     1
270
     1
271
     1
  0
XRECORD
  5
5028
102
{ACAD_REACTORS
330
5027
102
}
330
5027
100
AcDbXrecord
280
     1
270
     1
271
     1
  0
XRECORD
  5
502C
102
{ACAD_REACTORS
330
5027
102
}
330
5027
100
AcDbXrecord
280
     1
270
     1
271
     1
  0
XRECORD
  5
502B
102
{ACAD_REACTORS
330
5027
102
}
330
5027
100
AcDbXrecord
280
     1
270
     1
271
     1
  0
XRECORD
  5
502D
102
{ACAD_REACTORS
330
5027
102
}
330
5027
100
AcDbXrecord
280
     1
270
     1
271
     1
  0
XRECORD
  5
502A
102
{ACAD_REACTORS
330
5027
102
}
330
5027
100
AcDbXrecord
280
     1
270
     1
271
     1
  0
XRECORD
  5
528A
102
{ACAD_REACTORS
330
501F
102
}
330
501F
100
AcDbXrecord
280
     1
102
MATERIAL
148
0.0
149
0.0
149
0.0
 93
        0
 94
      127
282
     0
 72
     0
 77
     0
171
     0
175
     0
179
     0
273
     0
  0
XRECORD
  5
5021
102
{ACAD_REACTORS
330
501F
102
}
330
501F
100
AcDbXrecord
280
     1
270
     1
271
     1
  0
XRECORD
  5
5020
102
{ACAD_REACTORS
330
501F
102
}
330
501F
100
AcDbXrecord
280
     1
270
     1
271
     1
  0
XRECORD
  5
5024
102
{ACAD_REACTORS
330
501F
102
}
330
501F
100
AcDbXrecord
280
     1
270
     1
271
     1
  0
XRECORD
  5
5023
102
{ACAD_REACTORS
330
501F
102
}
330
501F
100
AcDbXrecord
280
     1
270
     1
271
     1
  0
XRECORD
  5
5025
102
{ACAD_REACTORS
330
501F
102
}
330
501F
100
AcDbXrecord
280
     1
270
     1
271
     1
  0
XRECORD
  5
5022
102
{ACAD_REACTORS
330
501F
102
}
330
501F
100
AcDbXrecord
280
     1
270
     1
271
     1
  0
XRECORD
  5
528C
102
{ACAD_REACTORS
330
502F
102
}
330
502F
100
AcDbXrecord
280
     1
102
MATERIAL
148
0.0
149
0.0
149
0.0
 93
        0
 94
      127
282
     0
 72
     0
 77
     0
171
     0
175
     0
179
     0
273
     0
  0
XRECORD
  5
5031
102
{ACAD_REACTORS
330
502F
102
}
330
502F
100
AcDbXrecord
280
     1
270
     1
271
     1
  0
XRECORD
  5
5030
102
{ACAD_REACTORS
330
502F
102
}
330
502F
100
AcDbXrecord
280
     1
270
     1
271
     1
  0
XRECORD
  5
5034
102
{ACAD_REACTORS
330
502F
102
}
330
502F
100
AcDbXrecord
280
     1
270
     1
271
     1
  0
XRECORD
  5
5033
102
{ACAD_REACTORS
330
502F
102
}
330
502F
100
AcDbXrecord
280
     1
270
     1
271
     1
  0
XRECORD
  5
5035
102
{ACAD_REACTORS
330
502F
102
}
330
502F
100
AcDbXrecord
280
     1
270
     1
271
     1
  0
XRECORD
  5
5032
102
{ACAD_REACTORS
330
502F
102
}
330
502F
100
AcDbXrecord
280
     1
270
     1
271
     1
  0
XRECORD
  5
52BF
102
{ACAD_REACTORS
330
52BE
102
}
330
52BE
100
AcDbXrecord
280
     1
102
DISPLAYNAME
  1
Imperial24
102
FLAGS
 90
        0
  0
CELLSTYLEMAP
  5
5287
102
{ACAD_REACTORS
330
51E3
102
}
330
51E3
100
AcDbCellStyleMap
 90
        3
300
CELLSTYLE
  1
TABLEFORMAT_BEGIN
 90
        5
170
     1
 91
        0
 92
    32768
 62
   257
 93
        1
300
CONTENTFORMAT
  1
CONTENTFORMAT_BEGIN
 90
        0
 91
        0
 92
      512
 93
        0
300

 40
0.0
140
1.0
 94
        5
 62
     0
340
5062
144
0.25
309
CONTENTFORMAT_END
171
     1
301
MARGIN
  1
CELLMARGIN_BEGIN
 40
0.06
 40
0.06
 40
0.06
 40
0.06
 40
0.18
 40
0.18
309
CELLMARGIN_END
 94
        6
 95
        1
302
GRIDFORMAT
  1
GRIDFORMAT_BEGIN
 90
        0
 91
        1
 62
     0
 92
       -2
340
0
 93
        0
 40
0.045
309
GRIDFORMAT_END
 95
        2
302
GRIDFORMAT
  1
GRIDFORMAT_BEGIN
 90
        0
 91
        1
 62
     0
 92
       -2
340
0
 93
        0
 40
0.045
309
GRIDFORMAT_END
 95
        4
302
GRIDFORMAT
  1
GRIDFORMAT_BEGIN
 90
        0
 91
        1
 62
     0
 92
       -2
340
0
 93
        0
 40
0.045
309
GRIDFORMAT_END
 95
        8
302
GRIDFORMAT
  1
GRIDFORMAT_BEGIN
 90
        0
 91
        1
 62
     0
 92
       -2
340
0
 93
        0
 40
0.045
309
GRIDFORMAT_END
 95
       16
302
GRIDFORMAT
  1
GRIDFORMAT_BEGIN
 90
        0
 91
        1
 62
     0
 92
       -2
340
0
 93
        0
 40
0.045
309
GRIDFORMAT_END
 95
       32
302
GRIDFORMAT
  1
GRIDFORMAT_BEGIN
 90
        0
 91
        1
 62
     0
 92
       -2
340
0
 93
        0
 40
0.045
309
GRIDFORMAT_END
309
TABLEFORMAT_END
  1
CELLSTYLE_BEGIN
 90
        1
 91
        1
300
_TITLE
309
CELLSTYLE_END
300
CELLSTYLE
  1
TABLEFORMAT_BEGIN
 90
        5
170
     1
 91
        0
 92
        0
 62
   257
 93
        1
300
CONTENTFORMAT
  1
CONTENTFORMAT_BEGIN
 90
        0
 91
        0
 92
      512
 93
        0
300

 40
0.0
140
1.0
 94
        5
 62
     0
340
5062
144
0.18
309
CONTENTFORMAT_END
171
     1
301
MARGIN
  1
CELLMARGIN_BEGIN
 40
0.06
 40
0.06
 40
0.06
 40
0.06
 40
0.18
 40
0.18
309
CELLMARGIN_END
 94
        6
 95
        1
302
GRIDFORMAT
  1
GRIDFORMAT_BEGIN
 90
        0
 91
        1
 62
     0
 92
       -2
340
0
 93
        0
 40
0.045
309
GRIDFORMAT_END
 95
        2
302
GRIDFORMAT
  1
GRIDFORMAT_BEGIN
 90
        0
 91
        1
 62
     0
 92
       -2
340
0
 93
        0
 40
0.045
309
GRIDFORMAT_END
 95
        4
302
GRIDFORMAT
  1
GRIDFORMAT_BEGIN
 90
        0
 91
        1
 62
     0
 92
       -2
340
0
 93
        0
 40
0.045
309
GRIDFORMAT_END
 95
        8
302
GRIDFORMAT
  1
GRIDFORMAT_BEGIN
 90
        0
 91
        1
 62
     0
 92
       -2
340
0
 93
        0
 40
0.045
309
GRIDFORMAT_END
 95
       16
302
GRIDFORMAT
  1
GRIDFORMAT_BEGIN
 90
        0
 91
        1
 62
     0
 92
       -2
340
0
 93
        0
 40
0.045
309
GRIDFORMAT_END
 95
       32
302
GRIDFORMAT
  1
GRIDFORMAT_BEGIN
 90
        0
 91
        1
 62
     0
 92
       -2
340
0
 93
        0
 40
0.045
309
GRIDFORMAT_END
309
TABLEFORMAT_END
  1
CELLSTYLE_BEGIN
 90
        2
 91
        1
300
_HEADER
309
CELLSTYLE_END
300
CELLSTYLE
  1
TABLEFORMAT_BEGIN
 90
        5
170
     1
 91
        0
 92
        0
 62
   257
 93
        1
300
CONTENTFORMAT
  1
CONTENTFORMAT_BEGIN
 90
        0
 91
        0
 92
      512
 93
        0
300

 40
0.0
140
1.0
 94
        2
 62
     0
340
5062
144
0.18
309
CONTENTFORMAT_END
171
     1
301
MARGIN
  1
CELLMARGIN_BEGIN
 40
0.06
 40
0.06
 40
0.06
 40
0.06
 40
0.18
 40
0.18
309
CELLMARGIN_END
 94
        6
 95
        1
302
GRIDFORMAT
  1
GRIDFORMAT_BEGIN
 90
        0
 91
        1
 62
     0
 92
       -2
340
0
 93
        0
 40
0.045
309
GRIDFORMAT_END
 95
        2
302
GRIDFORMAT
  1
GRIDFORMAT_BEGIN
 90
        0
 91
        1
 62
     0
 92
       -2
340
0
 93
        0
 40
0.045
309
GRIDFORMAT_END
 95
        4
302
GRIDFORMAT
  1
GRIDFORMAT_BEGIN
 90
        0
 91
        1
 62
     0
 92
       -2
340
0
 93
        0
 40
0.045
309
GRIDFORMAT_END
 95
        8
302
GRIDFORMAT
  1
GRIDFORMAT_BEGIN
 90
        0
 91
        1
 62
     0
 92
       -2
340
0
 93
        0
 40
0.045
309
GRIDFORMAT_END
 95
       16
302
GRIDFORMAT
  1
GRIDFORMAT_BEGIN
 90
        0
 91
        1
 62
     0
 92
       -2
340
0
 93
        0
 40
0.045
309
GRIDFORMAT_END
 95
       32
302
GRIDFORMAT
  1
GRIDFORMAT_BEGIN
 90
        0
 91
        1
 62
     0
 92
       -2
340
0
 93
        0
 40
0.045
309
GRIDFORMAT_END
309
TABLEFORMAT_END
  1
CELLSTYLE_BEGIN
 90
        3
 91
        2
300
_DATA
309
CELLSTYLE_END
  0
XRECORD
  5
52BD
102
{ACAD_REACTORS
330
51E3
102
}
330
51E3
100
AcDbXrecord
280
     1
102
ACAD_ROUNDTRIP_PRE2007_TABLESTYLE
 90
      512
 91
        0
  1

 92
      512
 93
        0
  2

 94
      512
 95
        0
  3

  0
XRECORD
  5
5298
102
{ACAD_REACTORS
330
5297
102
}
330
5297
100
AcDbXrecord
280
     1
102
RTVSPost2010Prop28
280
     1
102
RTVSPost2010PropOp28
 70
     1
102
RTVSPost2010Prop29
280
     1
102
RTVSPost2010PropOp29
 70
     1
102
RTVSPost2010Prop30
280
     0
102
RTVSPost2010PropOp30
 70
     1
102
RTVSPost2010Prop31
280
     0
102
RTVSPost2010PropOp31
 70
     1
102
RTVSPost2010Prop32
280
     0
102
RTVSPost2010PropOp32
 70
     1
102
RTVSPost2010Prop33
280
     0
102
RTVSPost2010PropOp33
 70
     1
102
RTVSPost2010Prop34
280
     0
102
RTVSPost2010PropOp34
 70
     1
102
RTVSPost2010Prop35
280
     0
102
RTVSPost2010PropOp35
 70
     1
102
RTVSPost2010Prop36
280
     0
102
RTVSPost2010PropOp36
 70
     1
102
RTVSPost2010Prop37
 90
       50
102
RTVSPost2010PropOp37
 70
     1
102
RTVSPost2010Prop38
140
0.0
102
RTVSPost2010PropOp38
 70
     1
102
RTVSPost2010Prop39
140
1.0
102
RTVSPost2010PropOp39
 70
     1
102
RTVSPost2010Prop40
 90
        0
102
RTVSPost2010PropOp40
 70
     1
102
RTVSPost2010Prop41ColorIndex
 90
       18
102
RTVSPost2010Prop41ColorRGB
 90
        0
102
RTVSPost2010PropOp41
 70
     1
102
RTVSPost2010Prop42
 90
       50
102
RTVSPost2010PropOp42
 70
     1
102
RTVSPost2010Prop43
 90
        3
102
RTVSPost2010PropOp43
 70
     1
102
RTVSPost2010Prop44ColorIndex
 90
        5
102
RTVSPost2010Prop44ColorRGB
 90
      255
102
RTVSPost2010PropOp44
 70
     1
102
RTVSPost2010Prop45
280
     0
102
RTVSPost2010PropOp45
 70
     1
102
RTVSPost2010Prop46
 90
       50
102
RTVSPost2010PropOp46
 70
     1
102
RTVSPost2010Prop47
 90
       50
102
RTVSPost2010PropOp47
 70
     1
102
RTVSPost2010Prop48
 90
       50
102
RTVSPost2010PropOp48
 70
     1
102
RTVSPost2010Prop49
280
     0
102
RTVSPost2010PropOp49
 70
     1
102
RTVSPost2010Prop50
 90
       50
102
RTVSPost2010PropOp50
 70
     1
102
RTVSPost2010Prop51ColorIndex
 90
      256
102
RTVSPost2010Prop51ColorRGB
 90
-16777216
102
RTVSPost2010PropOp51
 70
     0
102
RTVSPost2010Prop52
140
1.0
102
RTVSPost2010PropOp52
 70
     0
102
RTVSPost2010Prop53
 90
        2
102
RTVSPost2010PropOp53
 70
     1
102
RTVSPost2010Prop54
  1
strokes_ogs.tif
102
RTVSPost2010PropOp54
 70
     1
102
RTVSPost2010Prop55
280
     0
102
RTVSPost2010PropOp55
 70
     1
102
RTVSPost2010Prop56
140
1.0
102
RTVSPost2010PropOp56
 70
     1
102
RTVSPost2010Prop57
140
1.0
102
RTVSPost2010PropOp57
 70
     1
102
RTVSPropertyOp0
 70
     1
102
RTVSPropertyOp1
 70
     1
102
RTVSPropertyOp2
 70
     1
102
RTVSPropertyOp3
 70
     1
102
RTVSPropertyOp4
 70
     1
102
RTVSPropertyOp5
 70
     1
102
RTVSPropertyOp6
 70
     1
102
RTVSPropertyOp7
 70
     1
102
RTVSPropertyOp8
 70
     1
102
RTVSPropertyOp9
 70
     1
102
RTVSPropertyOp10
 70
     1
102
RTVSPropertyOp11
 70
     1
102
RTVSPropertyOp12
 70
     1
102
RTVSPropertyOp13
 70
     1
102
RTVSPropertyOp14
 70
     1
102
RTVSPropertyOp15
 70
     1
102
RTVSPropertyOp16
 70
     1
102
RTVSPropertyOp17
 70
     1
102
RTVSPropertyOp18
 70
     1
102
RTVSPropertyOp19
 70
     1
102
RTVSPropertyOp20
 70
     1
102
RTVSPropertyOp21
 70
     1
102
RTVSPropertyOp22
 70
     1
102
RTVSPropertyOp23
 70
     1
102
RTVSPropertyOp24
 70
     1
102
RTVSPropertyOp25
 70
     1
102
RTVSPropertyOp26
 70
     1
102
RTVSPropertyOp27
 70
     1
102
RTVSPropertyOp28
 70
     1
102
RTVSPropertyOp29
 70
     1
102
RTVSPropertyOp30
 70
     1
102
RTVSPropertyOp31
 70
     1
102
RTVSPropertyOp32
 70
     1
102
RTVSPropertyOp33
 70
     1
102
RTVSPropertyOp34
 70
     1
102
RTVSPropertyOp35
 70
     1
102
RTVSPropertyOp36
 70
     1
102
RTVSPropertyOp37
 70
     1
102
RTVSPropertyOp38
 70
     1
102
RTVSPropertyOp39
 70
     1
102
RTVSPropertyOp40
 70
     1
102
RTVSPropertyOp41
 70
     1
102
RTVSPropertyOp42
 70
     1
102
RTVSPropertyOp43
 70
     1
102
RTVSPropertyOp44
 70
     1
102
RTVSPropertyOp45
 70
     1
102
RTVSPropertyOp46
 70
     1
102
RTVSPropertyOp47
 70
     1
102
RTVSPropertyOp48
 70
     1
102
RTVSPropertyOp49
 70
     1
102
RTVSPropertyOp50
 70
     1
102
RTVSPropertyOp51
 70
     0
102
RTVSPropertyOp52
 70
     0
102
RTVSPropertyOp53
 70
     1
102
RTVSPropertyOp54
 70
     1
102
RTVSPropertyOp55
 70
     1
102
RTVSPropertyOp56
 70
     1
102
RTVSPropertyOp57
 70
     1
102
RTVSPropertyOp58
 70
     1
102
RTVSPropertyOp59
 70
     1
102
RTVSPropertyOp60
 70
     1
102
RTVSPropertyOp61
 70
     1
102
RTVSPropertyOp62
 70
     1
  0
XRECORD
  5
5296
102
{ACAD_REACTORS
330
5295
102
}
330
5295
100
AcDbXrecord
280
     1
102
RTVSPost2010Prop28
280
     0
102
RTVSPost2010PropOp28
 70
     1
102
RTVSPost2010Prop29
280
     1
102
RTVSPost2010PropOp29
 70
     1
102
RTVSPost2010Prop30
280
     1
102
RTVSPost2010PropOp30
 70
     1
102
RTVSPost2010Prop31
280
     0
102
RTVSPost2010PropOp31
 70
     1
102
RTVSPost2010Prop32
280
     0
102
RTVSPost2010PropOp32
 70
     1
102
RTVSPost2010Prop33
280
     0
102
RTVSPost2010PropOp33
 70
     1
102
RTVSPost2010Prop34
280
     0
102
RTVSPost2010PropOp34
 70
     1
102
RTVSPost2010Prop35
280
     0
102
RTVSPost2010PropOp35
 70
     1
102
RTVSPost2010Prop36
280
     0
102
RTVSPost2010PropOp36
 70
     1
102
RTVSPost2010Prop37
 90
       50
102
RTVSPost2010PropOp37
 70
     1
102
RTVSPost2010Prop38
140
0.0
102
RTVSPost2010PropOp38
 70
     1
102
RTVSPost2010Prop39
140
1.0
102
RTVSPost2010PropOp39
 70
     1
102
RTVSPost2010Prop40
 90
        0
102
RTVSPost2010PropOp40
 70
     1
102
RTVSPost2010Prop41ColorIndex
 90
       18
102
RTVSPost2010Prop41ColorRGB
 90
        0
102
RTVSPost2010PropOp41
 70
     1
102
RTVSPost2010Prop42
 90
       50
102
RTVSPost2010PropOp42
 70
     1
102
RTVSPost2010Prop43
 90
        3
102
RTVSPost2010PropOp43
 70
     1
102
RTVSPost2010Prop44ColorIndex
 90
        5
102
RTVSPost2010Prop44ColorRGB
 90
      255
102
RTVSPost2010PropOp44
 70
     1
102
RTVSPost2010Prop45
280
     0
102
RTVSPost2010PropOp45
 70
     1
102
RTVSPost2010Prop46
 90
       50
102
RTVSPost2010PropOp46
 70
     1
102
RTVSPost2010Prop47
 90
       50
102
RTVSPost2010PropOp47
 70
     1
102
RTVSPost2010Prop48
 90
       50
102
RTVSPost2010PropOp48
 70
     1
102
RTVSPost2010Prop49
280
     0
102
RTVSPost2010PropOp49
 70
     1
102
RTVSPost2010Prop50
 90
       50
102
RTVSPost2010PropOp50
 70
     1
102
RTVSPost2010Prop51ColorIndex
 90
      256
102
RTVSPost2010Prop51ColorRGB
 90
-16777216
102
RTVSPost2010PropOp51
 70
     0
102
RTVSPost2010Prop52
140
1.0
102
RTVSPost2010PropOp52
 70
     0
102
RTVSPost2010Prop53
 90
        2
102
RTVSPost2010PropOp53
 70
     1
102
RTVSPost2010Prop54
  1
strokes_ogs.tif
102
RTVSPost2010PropOp54
 70
     1
102
RTVSPost2010Prop55
280
     0
102
RTVSPost2010PropOp55
 70
     1
102
RTVSPost2010Prop56
140
1.0
102
RTVSPost2010PropOp56
 70
     1
102
RTVSPost2010Prop57
140
1.0
102
RTVSPost2010PropOp57
 70
     1
102
RTVSPropertyOp0
 70
     1
102
RTVSPropertyOp1
 70
     1
102
RTVSPropertyOp2
 70
     1
102
RTVSPropertyOp3
 70
     1
102
RTVSPropertyOp4
 70
     1
102
RTVSPropertyOp5
 70
     1
102
RTVSPropertyOp6
 70
     1
102
RTVSPropertyOp7
 70
     1
102
RTVSPropertyOp8
 70
     1
102
RTVSPropertyOp9
 70
     1
102
RTVSPropertyOp10
 70
     1
102
RTVSPropertyOp11
 70
     1
102
RTVSPropertyOp12
 70
     1
102
RTVSPropertyOp13
 70
     1
102
RTVSPropertyOp14
 70
     1
102
RTVSPropertyOp15
 70
     1
102
RTVSPropertyOp16
 70
     1
102
RTVSPropertyOp17
 70
     1
102
RTVSPropertyOp18
 70
     1
102
RTVSPropertyOp19
 70
     1
102
RTVSPropertyOp20
 70
     1
102
RTVSPropertyOp21
 70
     1
102
RTVSPropertyOp22
 70
     1
102
RTVSPropertyOp23
 70
     1
102
RTVSPropertyOp24
 70
     1
102
RTVSPropertyOp25
 70
     1
102
RTVSPropertyOp26
 70
     1
102
RTVSPropertyOp27
 70
     1
102
RTVSPropertyOp28
 70
     1
102
RTVSPropertyOp29
 70
     1
102
RTVSPropertyOp30
 70
     1
102
RTVSPropertyOp31
 70
     1
102
RTVSPropertyOp32
 70
     1
102
RTVSPropertyOp33
 70
     1
102
RTVSPropertyOp34
 70
     1
102
RTVSPropertyOp35
 70
     1
102
RTVSPropertyOp36
 70
     1
102
RTVSPropertyOp37
 70
     1
102
RTVSPropertyOp38
 70
     1
102
RTVSPropertyOp39
 70
     1
102
RTVSPropertyOp40
 70
     1
102
RTVSPropertyOp41
 70
     1
102
RTVSPropertyOp42
 70
     1
102
RTVSPropertyOp43
 70
     1
102
RTVSPropertyOp44
 70
     1
102
RTVSPropertyOp45
 70
     1
102
RTVSPropertyOp46
 70
     1
102
RTVSPropertyOp47
 70
     1
102
RTVSPropertyOp48
 70
     1
102
RTVSPropertyOp49
 70
     1
102
RTVSPropertyOp50
 70
     1
102
RTVSPropertyOp51
 70
     0
102
RTVSPropertyOp52
 70
     0
102
RTVSPropertyOp53
 70
     1
102
RTVSPropertyOp54
 70
     1
102
RTVSPropertyOp55
 70
     1
102
RTVSPropertyOp56
 70
     1
102
RTVSPropertyOp57
 70
     1
102
RTVSPropertyOp58
 70
     1
102
RTVSPropertyOp59
 70
     1
102
RTVSPropertyOp60
 70
     1
102
RTVSPropertyOp61
 70
     1
102
RTVSPropertyOp62
 70
     1
  0
XRECORD
  5
52A4
102
{ACAD_REACTORS
330
52A3
102
}
330
52A3
100
AcDbXrecord
280
     1
102
RTVSPost2010Prop28
280
     0
102
RTVSPost2010PropOp28
 70
     1
102
RTVSPost2010Prop29
280
     1
102
RTVSPost2010PropOp29
 70
     1
102
RTVSPost2010Prop30
280
     1
102
RTVSPost2010PropOp30
 70
     1
102
RTVSPost2010Prop31
280
     0
102
RTVSPost2010PropOp31
 70
     1
102
RTVSPost2010Prop32
280
     0
102
RTVSPost2010PropOp32
 70
     1
102
RTVSPost2010Prop33
280
     0
102
RTVSPost2010PropOp33
 70
     1
102
RTVSPost2010Prop34
280
     0
102
RTVSPost2010PropOp34
 70
     1
102
RTVSPost2010Prop35
280
     0
102
RTVSPost2010PropOp35
 70
     1
102
RTVSPost2010Prop36
280
     0
102
RTVSPost2010PropOp36
 70
     1
102
RTVSPost2010Prop37
 90
       50
102
RTVSPost2010PropOp37
 70
     1
102
RTVSPost2010Prop38
140
0.0
102
RTVSPost2010PropOp38
 70
     1
102
RTVSPost2010Prop39
140
1.0
102
RTVSPost2010PropOp39
 70
     1
102
RTVSPost2010Prop40
 90
        0
102
RTVSPost2010PropOp40
 70
     1
102
RTVSPost2010Prop41ColorIndex
 90
       18
102
RTVSPost2010Prop41ColorRGB
 90
        0
102
RTVSPost2010PropOp41
 70
     1
102
RTVSPost2010Prop42
 90
       50
102
RTVSPost2010PropOp42
 70
     1
102
RTVSPost2010Prop43
 90
        3
102
RTVSPost2010PropOp43
 70
     1
102
RTVSPost2010Prop44ColorIndex
 90
        5
102
RTVSPost2010Prop44ColorRGB
 90
      255
102
RTVSPost2010PropOp44
 70
     1
102
RTVSPost2010Prop45
280
     0
102
RTVSPost2010PropOp45
 70
     1
102
RTVSPost2010Prop46
 90
       50
102
RTVSPost2010PropOp46
 70
     1
102
RTVSPost2010Prop47
 90
       50
102
RTVSPost2010PropOp47
 70
     1
102
RTVSPost2010Prop48
 90
       50
102
RTVSPost2010PropOp48
 70
     1
102
RTVSPost2010Prop49
280
     0
102
RTVSPost2010PropOp49
 70
     1
102
RTVSPost2010Prop50
 90
       50
102
RTVSPost2010PropOp50
 70
     1
102
RTVSPost2010Prop51ColorIndex
 90
      256
102
RTVSPost2010Prop51ColorRGB
 90
-16777216
102
RTVSPost2010PropOp51
 70
     0
102
RTVSPost2010Prop52
140
1.0
102
RTVSPost2010PropOp52
 70
     0
102
RTVSPost2010Prop53
 90
        2
102
RTVSPost2010PropOp53
 70
     1
102
RTVSPost2010Prop54
  1
strokes_ogs.tif
102
RTVSPost2010PropOp54
 70
     1
102
RTVSPost2010Prop55
280
     0
102
RTVSPost2010PropOp55
 70
     1
102
RTVSPost2010Prop56
140
1.0
102
RTVSPost2010PropOp56
 70
     1
102
RTVSPost2010Prop57
140
1.0
102
RTVSPost2010PropOp57
 70
     1
102
RTVSPropertyOp0
 70
     1
102
RTVSPropertyOp1
 70
     1
102
RTVSPropertyOp2
 70
     1
102
RTVSPropertyOp3
 70
     1
102
RTVSPropertyOp4
 70
     1
102
RTVSPropertyOp5
 70
     1
102
RTVSPropertyOp6
 70
     1
102
RTVSPropertyOp7
 70
     1
102
RTVSPropertyOp8
 70
     1
102
RTVSPropertyOp9
 70
     1
102
RTVSPropertyOp10
 70
     1
102
RTVSPropertyOp11
 70
     1
102
RTVSPropertyOp12
 70
     1
102
RTVSPropertyOp13
 70
     1
102
RTVSPropertyOp14
 70
     1
102
RTVSPropertyOp15
 70
     1
102
RTVSPropertyOp16
 70
     1
102
RTVSPropertyOp17
 70
     1
102
RTVSPropertyOp18
 70
     1
102
RTVSPropertyOp19
 70
     1
102
RTVSPropertyOp20
 70
     1
102
RTVSPropertyOp21
 70
     1
102
RTVSPropertyOp22
 70
     1
102
RTVSPropertyOp23
 70
     1
102
RTVSPropertyOp24
 70
     1
102
RTVSPropertyOp25
 70
     1
102
RTVSPropertyOp26
 70
     1
102
RTVSPropertyOp27
 70
     1
102
RTVSPropertyOp28
 70
     1
102
RTVSPropertyOp29
 70
     1
102
RTVSPropertyOp30
 70
     1
102
RTVSPropertyOp31
 70
     1
102
RTVSPropertyOp32
 70
     1
102
RTVSPropertyOp33
 70
     1
102
RTVSPropertyOp34
 70
     1
102
RTVSPropertyOp35
 70
     1
102
RTVSPropertyOp36
 70
     1
102
RTVSPropertyOp37
 70
     1
102
RTVSPropertyOp38
 70
     1
102
RTVSPropertyOp39
 70
     1
102
RTVSPropertyOp40
 70
     1
102
RTVSPropertyOp41
 70
     1
102
RTVSPropertyOp42
 70
     1
102
RTVSPropertyOp43
 70
     1
102
RTVSPropertyOp44
 70
     1
102
RTVSPropertyOp45
 70
     1
102
RTVSPropertyOp46
 70
     1
102
RTVSPropertyOp47
 70
     1
102
RTVSPropertyOp48
 70
     1
102
RTVSPropertyOp49
 70
     1
102
RTVSPropertyOp50
 70
     1
102
RTVSPropertyOp51
 70
     0
102
RTVSPropertyOp52
 70
     0
102
RTVSPropertyOp53
 70
     1
102
RTVSPropertyOp54
 70
     1
102
RTVSPropertyOp55
 70
     1
102
RTVSPropertyOp56
 70
     1
102
RTVSPropertyOp57
 70
     1
102
RTVSPropertyOp58
 70
     1
102
RTVSPropertyOp59
 70
     1
102
RTVSPropertyOp60
 70
     1
102
RTVSPropertyOp61
 70
     1
102
RTVSPropertyOp62
 70
     1
  0
XRECORD
  5
52AC
102
{ACAD_REACTORS
330
52AB
102
}
330
52AB
100
AcDbXrecord
280
     1
102
RTVSPost2010Prop28
280
     0
102
RTVSPost2010PropOp28
 70
     1
102
RTVSPost2010Prop29
280
     1
102
RTVSPost2010PropOp29
 70
     1
102
RTVSPost2010Prop30
280
     1
102
RTVSPost2010PropOp30
 70
     1
102
RTVSPost2010Prop31
280
     0
102
RTVSPost2010PropOp31
 70
     1
102
RTVSPost2010Prop32
280
     0
102
RTVSPost2010PropOp32
 70
     1
102
RTVSPost2010Prop33
280
     0
102
RTVSPost2010PropOp33
 70
     1
102
RTVSPost2010Prop34
280
     0
102
RTVSPost2010PropOp34
 70
     1
102
RTVSPost2010Prop35
280
     0
102
RTVSPost2010PropOp35
 70
     1
102
RTVSPost2010Prop36
280
     0
102
RTVSPost2010PropOp36
 70
     1
102
RTVSPost2010Prop37
 90
       50
102
RTVSPost2010PropOp37
 70
     1
102
RTVSPost2010Prop38
140
0.0
102
RTVSPost2010PropOp38
 70
     1
102
RTVSPost2010Prop39
140
1.0
102
RTVSPost2010PropOp39
 70
     1
102
RTVSPost2010Prop40
 90
        0
102
RTVSPost2010PropOp40
 70
     1
102
RTVSPost2010Prop41ColorIndex
 90
       18
102
RTVSPost2010Prop41ColorRGB
 90
        0
102
RTVSPost2010PropOp41
 70
     1
102
RTVSPost2010Prop42
 90
       50
102
RTVSPost2010PropOp42
 70
     1
102
RTVSPost2010Prop43
 90
        3
102
RTVSPost2010PropOp43
 70
     1
102
RTVSPost2010Prop44ColorIndex
 90
        5
102
RTVSPost2010Prop44ColorRGB
 90
      255
102
RTVSPost2010PropOp44
 70
     1
102
RTVSPost2010Prop45
280
     0
102
RTVSPost2010PropOp45
 70
     1
102
RTVSPost2010Prop46
 90
       50
102
RTVSPost2010PropOp46
 70
     1
102
RTVSPost2010Prop47
 90
       50
102
RTVSPost2010PropOp47
 70
     1
102
RTVSPost2010Prop48
 90
       50
102
RTVSPost2010PropOp48
 70
     1
102
RTVSPost2010Prop49
280
     0
102
RTVSPost2010PropOp49
 70
     1
102
RTVSPost2010Prop50
 90
       50
102
RTVSPost2010PropOp50
 70
     1
102
RTVSPost2010Prop51ColorIndex
 90
      256
102
RTVSPost2010Prop51ColorRGB
 90
-16777216
102
RTVSPost2010PropOp51
 70
     0
102
RTVSPost2010Prop52
140
1.0
102
RTVSPost2010PropOp52
 70
     0
102
RTVSPost2010Prop53
 90
        2
102
RTVSPost2010PropOp53
 70
     1
102
RTVSPost2010Prop54
  1
strokes_ogs.tif
102
RTVSPost2010PropOp54
 70
     1
102
RTVSPost2010Prop55
280
     0
102
RTVSPost2010PropOp55
 70
     1
102
RTVSPost2010Prop56
140
1.0
102
RTVSPost2010PropOp56
 70
     1
102
RTVSPost2010Prop57
140
1.0
102
RTVSPost2010PropOp57
 70
     1
102
RTVSPropertyOp0
 70
     1
102
RTVSPropertyOp1
 70
     1
102
RTVSPropertyOp2
 70
     1
102
RTVSPropertyOp3
 70
     1
102
RTVSPropertyOp4
 70
     1
102
RTVSPropertyOp5
 70
     1
102
RTVSPropertyOp6
 70
     1
102
RTVSPropertyOp7
 70
     1
102
RTVSPropertyOp8
 70
     1
102
RTVSPropertyOp9
 70
     1
102
RTVSPropertyOp10
 70
     1
102
RTVSPropertyOp11
 70
     1
102
RTVSPropertyOp12
 70
     1
102
RTVSPropertyOp13
 70
     1
102
RTVSPropertyOp14
 70
     1
102
RTVSPropertyOp15
 70
     1
102
RTVSPropertyOp16
 70
     1
102
RTVSPropertyOp17
 70
     1
102
RTVSPropertyOp18
 70
     1
102
RTVSPropertyOp19
 70
     1
102
RTVSPropertyOp20
 70
     1
102
RTVSPropertyOp21
 70
     1
102
RTVSPropertyOp22
 70
     1
102
RTVSPropertyOp23
 70
     1
102
RTVSPropertyOp24
 70
     1
102
RTVSPropertyOp25
 70
     1
102
RTVSPropertyOp26
 70
     1
102
RTVSPropertyOp27
 70
     1
102
RTVSPropertyOp28
 70
     1
102
RTVSPropertyOp29
 70
     1
102
RTVSPropertyOp30
 70
     1
102
RTVSPropertyOp31
 70
     1
102
RTVSPropertyOp32
 70
     1
102
RTVSPropertyOp33
 70
     1
102
RTVSPropertyOp34
 70
     1
102
RTVSPropertyOp35
 70
     1
102
RTVSPropertyOp36
 70
     1
102
RTVSPropertyOp37
 70
     1
102
RTVSPropertyOp38
 70
     1
102
RTVSPropertyOp39
 70
     1
102
RTVSPropertyOp40
 70
     1
102
RTVSPropertyOp41
 70
     1
102
RTVSPropertyOp42
 70
     1
102
RTVSPropertyOp43
 70
     1
102
RTVSPropertyOp44
 70
     1
102
RTVSPropertyOp45
 70
     1
102
RTVSPropertyOp46
 70
     1
102
RTVSPropertyOp47
 70
     1
102
RTVSPropertyOp48
 70
     1
102
RTVSPropertyOp49
 70
     1
102
RTVSPropertyOp50
 70
     1
102
RTVSPropertyOp51
 70
     0
102
RTVSPropertyOp52
 70
     0
102
RTVSPropertyOp53
 70
     1
102
RTVSPropertyOp54
 70
     1
102
RTVSPropertyOp55
 70
     1
102
RTVSPropertyOp56
 70
     1
102
RTVSPropertyOp57
 70
     1
102
RTVSPropertyOp58
 70
     1
102
RTVSPropertyOp59
 70
     1
102
RTVSPropertyOp60
 70
     1
102
RTVSPropertyOp61
 70
     1
102
RTVSPropertyOp62
 70
     1
  0
XRECORD
  5
529E
102
{ACAD_REACTORS
330
529D
102
}
330
529D
100
AcDbXrecord
280
     1
102
RTVSPost2010Prop28
280
     0
102
RTVSPost2010PropOp28
 70
     1
102
RTVSPost2010Prop29
280
     1
102
RTVSPost2010PropOp29
 70
     1
102
RTVSPost2010Prop30
280
     1
102
RTVSPost2010PropOp30
 70
     1
102
RTVSPost2010Prop31
280
     0
102
RTVSPost2010PropOp31
 70
     1
102
RTVSPost2010Prop32
280
     0
102
RTVSPost2010PropOp32
 70
     1
102
RTVSPost2010Prop33
280
     0
102
RTVSPost2010PropOp33
 70
     1
102
RTVSPost2010Prop34
280
     0
102
RTVSPost2010PropOp34
 70
     1
102
RTVSPost2010Prop35
280
     0
102
RTVSPost2010PropOp35
 70
     1
102
RTVSPost2010Prop36
280
     0
102
RTVSPost2010PropOp36
 70
     1
102
RTVSPost2010Prop37
 90
       50
102
RTVSPost2010PropOp37
 70
     1
102
RTVSPost2010Prop38
140
0.0
102
RTVSPost2010PropOp38
 70
     1
102
RTVSPost2010Prop39
140
1.0
102
RTVSPost2010PropOp39
 70
     1
102
RTVSPost2010Prop40
 90
        0
102
RTVSPost2010PropOp40
 70
     1
102
RTVSPost2010Prop41ColorIndex
 90
       18
102
RTVSPost2010Prop41ColorRGB
 90
        0
102
RTVSPost2010PropOp41
 70
     1
102
RTVSPost2010Prop42
 90
       50
102
RTVSPost2010PropOp42
 70
     1
102
RTVSPost2010Prop43
 90
        3
102
RTVSPost2010PropOp43
 70
     1
102
RTVSPost2010Prop44ColorIndex
 90
        5
102
RTVSPost2010Prop44ColorRGB
 90
      255
102
RTVSPost2010PropOp44
 70
     1
102
RTVSPost2010Prop45
280
     0
102
RTVSPost2010PropOp45
 70
     1
102
RTVSPost2010Prop46
 90
       50
102
RTVSPost2010PropOp46
 70
     1
102
RTVSPost2010Prop47
 90
       50
102
RTVSPost2010PropOp47
 70
     1
102
RTVSPost2010Prop48
 90
       50
102
RTVSPost2010PropOp48
 70
     1
102
RTVSPost2010Prop49
280
     0
102
RTVSPost2010PropOp49
 70
     1
102
RTVSPost2010Prop50
 90
       50
102
RTVSPost2010PropOp50
 70
     1
102
RTVSPost2010Prop51ColorIndex
 90
      256
102
RTVSPost2010Prop51ColorRGB
 90
-16777216
102
RTVSPost2010PropOp51
 70
     0
102
RTVSPost2010Prop52
140
1.0
102
RTVSPost2010PropOp52
 70
     0
102
RTVSPost2010Prop53
 90
        2
102
RTVSPost2010PropOp53
 70
     1
102
RTVSPost2010Prop54
  1
strokes_ogs.tif
102
RTVSPost2010PropOp54
 70
     1
102
RTVSPost2010Prop55
280
     0
102
RTVSPost2010PropOp55
 70
     1
102
RTVSPost2010Prop56
140
1.0
102
RTVSPost2010PropOp56
 70
     1
102
RTVSPost2010Prop57
140
1.0
102
RTVSPost2010PropOp57
 70
     1
102
RTVSPropertyOp0
 70
     1
102
RTVSPropertyOp1
 70
     1
102
RTVSPropertyOp2
 70
     1
102
RTVSPropertyOp3
 70
     1
102
RTVSPropertyOp4
 70
     1
102
RTVSPropertyOp5
 70
     1
102
RTVSPropertyOp6
 70
     1
102
RTVSPropertyOp7
 70
     1
102
RTVSPropertyOp8
 70
     1
102
RTVSPropertyOp9
 70
     1
102
RTVSPropertyOp10
 70
     1
102
RTVSPropertyOp11
 70
     1
102
RTVSPropertyOp12
 70
     1
102
RTVSPropertyOp13
 70
     1
102
RTVSPropertyOp14
 70
     1
102
RTVSPropertyOp15
 70
     1
102
RTVSPropertyOp16
 70
     1
102
RTVSPropertyOp17
 70
     1
102
RTVSPropertyOp18
 70
     1
102
RTVSPropertyOp19
 70
     1
102
RTVSPropertyOp20
 70
     1
102
RTVSPropertyOp21
 70
     1
102
RTVSPropertyOp22
 70
     1
102
RTVSPropertyOp23
 70
     1
102
RTVSPropertyOp24
 70
     1
102
RTVSPropertyOp25
 70
     1
102
RTVSPropertyOp26
 70
     1
102
RTVSPropertyOp27
 70
     1
102
RTVSPropertyOp28
 70
     1
102
RTVSPropertyOp29
 70
     1
102
RTVSPropertyOp30
 70
     1
102
RTVSPropertyOp31
 70
     1
102
RTVSPropertyOp32
 70
     1
102
RTVSPropertyOp33
 70
     1
102
RTVSPropertyOp34
 70
     1
102
RTVSPropertyOp35
 70
     1
102
RTVSPropertyOp36
 70
     1
102
RTVSPropertyOp37
 70
     1
102
RTVSPropertyOp38
 70
     1
102
RTVSPropertyOp39
 70
     1
102
RTVSPropertyOp40
 70
     1
102
RTVSPropertyOp41
 70
     1
102
RTVSPropertyOp42
 70
     1
102
RTVSPropertyOp43
 70
     1
102
RTVSPropertyOp44
 70
     1
102
RTVSPropertyOp45
 70
     1
102
RTVSPropertyOp46
 70
     1
102
RTVSPropertyOp47
 70
     1
102
RTVSPropertyOp48
 70
     1
102
RTVSPropertyOp49
 70
     1
102
RTVSPropertyOp50
 70
     1
102
RTVSPropertyOp51
 70
     0
102
RTVSPropertyOp52
 70
     0
102
RTVSPropertyOp53
 70
     1
102
RTVSPropertyOp54
 70
     1
102
RTVSPropertyOp55
 70
     1
102
RTVSPropertyOp56
 70
     1
102
RTVSPropertyOp57
 70
     1
102
RTVSPropertyOp58
 70
     1
102
RTVSPropertyOp59
 70
     1
102
RTVSPropertyOp60
 70
     1
102
RTVSPropertyOp61
 70
     1
102
RTVSPropertyOp62
 70
     1
  0
XRECORD
  5
52A2
102
{ACAD_REACTORS
330
52A1
102
}
330
52A1
100
AcDbXrecord
280
     1
102
RTVSPost2010Prop28
280
     0
102
RTVSPost2010PropOp28
 70
     1
102
RTVSPost2010Prop29
280
     1
102
RTVSPost2010PropOp29
 70
     1
102
RTVSPost2010Prop30
280
     1
102
RTVSPost2010PropOp30
 70
     1
102
RTVSPost2010Prop31
280
     0
102
RTVSPost2010PropOp31
 70
     1
102
RTVSPost2010Prop32
280
     0
102
RTVSPost2010PropOp32
 70
     1
102
RTVSPost2010Prop33
280
     0
102
RTVSPost2010PropOp33
 70
     1
102
RTVSPost2010Prop34
280
     0
102
RTVSPost2010PropOp34
 70
     1
102
RTVSPost2010Prop35
280
     0
102
RTVSPost2010PropOp35
 70
     1
102
RTVSPost2010Prop36
280
     0
102
RTVSPost2010PropOp36
 70
     1
102
RTVSPost2010Prop37
 90
       50
102
RTVSPost2010PropOp37
 70
     1
102
RTVSPost2010Prop38
140
0.0
102
RTVSPost2010PropOp38
 70
     1
102
RTVSPost2010Prop39
140
1.0
102
RTVSPost2010PropOp39
 70
     1
102
RTVSPost2010Prop40
 90
        0
102
RTVSPost2010PropOp40
 70
     1
102
RTVSPost2010Prop41ColorIndex
 90
       18
102
RTVSPost2010Prop41ColorRGB
 90
        0
102
RTVSPost2010PropOp41
 70
     1
102
RTVSPost2010Prop42
 90
       50
102
RTVSPost2010PropOp42
 70
     1
102
RTVSPost2010Prop43
 90
        3
102
RTVSPost2010PropOp43
 70
     1
102
RTVSPost2010Prop44ColorIndex
 90
        5
102
RTVSPost2010Prop44ColorRGB
 90
      255
102
RTVSPost2010PropOp44
 70
     1
102
RTVSPost2010Prop45
280
     0
102
RTVSPost2010PropOp45
 70
     1
102
RTVSPost2010Prop46
 90
       50
102
RTVSPost2010PropOp46
 70
     1
102
RTVSPost2010Prop47
 90
       50
102
RTVSPost2010PropOp47
 70
     1
102
RTVSPost2010Prop48
 90
       50
102
RTVSPost2010PropOp48
 70
     1
102
RTVSPost2010Prop49
280
     0
102
RTVSPost2010PropOp49
 70
     1
102
RTVSPost2010Prop50
 90
       50
102
RTVSPost2010PropOp50
 70
     1
102
RTVSPost2010Prop51ColorIndex
 90
      256
102
RTVSPost2010Prop51ColorRGB
 90
-16777216
102
RTVSPost2010PropOp51
 70
     0
102
RTVSPost2010Prop52
140
1.0
102
RTVSPost2010PropOp52
 70
     0
102
RTVSPost2010Prop53
 90
        2
102
RTVSPost2010PropOp53
 70
     1
102
RTVSPost2010Prop54
  1
strokes_ogs.tif
102
RTVSPost2010PropOp54
 70
     1
102
RTVSPost2010Prop55
280
     0
102
RTVSPost2010PropOp55
 70
     1
102
RTVSPost2010Prop56
140
1.0
102
RTVSPost2010PropOp56
 70
     1
102
RTVSPost2010Prop57
140
1.0
102
RTVSPost2010PropOp57
 70
     1
102
RTVSPropertyOp0
 70
     1
102
RTVSPropertyOp1
 70
     1
102
RTVSPropertyOp2
 70
     1
102
RTVSPropertyOp3
 70
     1
102
RTVSPropertyOp4
 70
     1
102
RTVSPropertyOp5
 70
     1
102
RTVSPropertyOp6
 70
     1
102
RTVSPropertyOp7
 70
     1
102
RTVSPropertyOp8
 70
     1
102
RTVSPropertyOp9
 70
     1
102
RTVSPropertyOp10
 70
     1
102
RTVSPropertyOp11
 70
     1
102
RTVSPropertyOp12
 70
     1
102
RTVSPropertyOp13
 70
     1
102
RTVSPropertyOp14
 70
     1
102
RTVSPropertyOp15
 70
     1
102
RTVSPropertyOp16
 70
     1
102
RTVSPropertyOp17
 70
     1
102
RTVSPropertyOp18
 70
     1
102
RTVSPropertyOp19
 70
     1
102
RTVSPropertyOp20
 70
     1
102
RTVSPropertyOp21
 70
     1
102
RTVSPropertyOp22
 70
     1
102
RTVSPropertyOp23
 70
     1
102
RTVSPropertyOp24
 70
     1
102
RTVSPropertyOp25
 70
     1
102
RTVSPropertyOp26
 70
     1
102
RTVSPropertyOp27
 70
     1
102
RTVSPropertyOp28
 70
     1
102
RTVSPropertyOp29
 70
     1
102
RTVSPropertyOp30
 70
     1
102
RTVSPropertyOp31
 70
     1
102
RTVSPropertyOp32
 70
     1
102
RTVSPropertyOp33
 70
     1
102
RTVSPropertyOp34
 70
     1
102
RTVSPropertyOp35
 70
     1
102
RTVSPropertyOp36
 70
     1
102
RTVSPropertyOp37
 70
     1
102
RTVSPropertyOp38
 70
     1
102
RTVSPropertyOp39
 70
     1
102
RTVSPropertyOp40
 70
     1
102
RTVSPropertyOp41
 70
     1
102
RTVSPropertyOp42
 70
     1
102
RTVSPropertyOp43
 70
     1
102
RTVSPropertyOp44
 70
     1
102
RTVSPropertyOp45
 70
     1
102
RTVSPropertyOp46
 70
     1
102
RTVSPropertyOp47
 70
     1
102
RTVSPropertyOp48
 70
     1
102
RTVSPropertyOp49
 70
     1
102
RTVSPropertyOp50
 70
     1
102
RTVSPropertyOp51
 70
     0
102
RTVSPropertyOp52
 70
     0
102
RTVSPropertyOp53
 70
     1
102
RTVSPropertyOp54
 70
     1
102
RTVSPropertyOp55
 70
     1
102
RTVSPropertyOp56
 70
     1
102
RTVSPropertyOp57
 70
     1
102
RTVSPropertyOp58
 70
     1
102
RTVSPropertyOp59
 70
     1
102
RTVSPropertyOp60
 70
     1
102
RTVSPropertyOp61
 70
     1
102
RTVSPropertyOp62
 70
     1
  0
XRECORD
  5
52BC
102
{ACAD_REACTORS
330
52BB
102
}
330
52BB
100
AcDbXrecord
280
     1
102
RTVSPost2010Prop28
280
     0
102
RTVSPost2010PropOp28
 70
     1
102
RTVSPost2010Prop29
280
     1
102
RTVSPost2010PropOp29
 70
     1
102
RTVSPost2010Prop30
280
     1
102
RTVSPost2010PropOp30
 70
     1
102
RTVSPost2010Prop31
280
     0
102
RTVSPost2010PropOp31
 70
     1
102
RTVSPost2010Prop32
280
     0
102
RTVSPost2010PropOp32
 70
     1
102
RTVSPost2010Prop33
280
     0
102
RTVSPost2010PropOp33
 70
     1
102
RTVSPost2010Prop34
280
     0
102
RTVSPost2010PropOp34
 70
     1
102
RTVSPost2010Prop35
280
     0
102
RTVSPost2010PropOp35
 70
     1
102
RTVSPost2010Prop36
280
     0
102
RTVSPost2010PropOp36
 70
     1
102
RTVSPost2010Prop37
 90
       50
102
RTVSPost2010PropOp37
 70
     0
102
RTVSPost2010Prop38
140
0.0
102
RTVSPost2010PropOp38
 70
     0
102
RTVSPost2010Prop39
140
1.0
102
RTVSPost2010PropOp39
 70
     0
102
RTVSPost2010Prop40
 90
        0
102
RTVSPost2010PropOp40
 70
     0
102
RTVSPost2010Prop41ColorIndex
 90
       18
102
RTVSPost2010Prop41ColorRGB
 90
        0
102
RTVSPost2010PropOp41
 70
     0
102
RTVSPost2010Prop42
 90
       50
102
RTVSPost2010PropOp42
 70
     0
102
RTVSPost2010Prop43
 90
        3
102
RTVSPost2010PropOp43
 70
     0
102
RTVSPost2010Prop44ColorIndex
 90
        5
102
RTVSPost2010Prop44ColorRGB
 90
      255
102
RTVSPost2010PropOp44
 70
     0
102
RTVSPost2010Prop45
280
     0
102
RTVSPost2010PropOp45
 70
     1
102
RTVSPost2010Prop46
 90
       50
102
RTVSPost2010PropOp46
 70
     0
102
RTVSPost2010Prop47
 90
       50
102
RTVSPost2010PropOp47
 70
     0
102
RTVSPost2010Prop48
 90
       50
102
RTVSPost2010PropOp48
 70
     0
102
RTVSPost2010Prop49
280
     0
102
RTVSPost2010PropOp49
 70
     1
102
RTVSPost2010Prop50
 90
       50
102
RTVSPost2010PropOp50
 70
     0
102
RTVSPost2010Prop51ColorIndex
 90
      256
102
RTVSPost2010Prop51ColorRGB
 90
-16777216
102
RTVSPost2010PropOp51
 70
     0
102
RTVSPost2010Prop52
140
1.0
102
RTVSPost2010PropOp52
 70
     0
102
RTVSPost2010Prop53
 90
        2
102
RTVSPost2010PropOp53
 70
     0
102
RTVSPost2010Prop54
  1
strokes_ogs.tif
102
RTVSPost2010PropOp54
 70
     0
102
RTVSPost2010Prop55
280
     0
102
RTVSPost2010PropOp55
 70
     1
102
RTVSPost2010Prop56
140
1.0
102
RTVSPost2010PropOp56
 70
     0
102
RTVSPost2010Prop57
140
1.0
102
RTVSPost2010PropOp57
 70
     0
102
RTVSPropertyOp0
 70
     0
102
RTVSPropertyOp1
 70
     0
102
RTVSPropertyOp2
 70
     0
102
RTVSPropertyOp3
 70
     0
102
RTVSPropertyOp4
 70
     0
102
RTVSPropertyOp5
 70
     0
102
RTVSPropertyOp6
 70
     0
102
RTVSPropertyOp7
 70
     0
102
RTVSPropertyOp8
 70
     0
102
RTVSPropertyOp9
 70
     0
102
RTVSPropertyOp10
 70
     0
102
RTVSPropertyOp11
 70
     0
102
RTVSPropertyOp12
 70
     0
102
RTVSPropertyOp13
 70
     0
102
RTVSPropertyOp14
 70
     2
102
RTVSPropertyOp15
 70
     0
102
RTVSPropertyOp16
 70
     0
102
RTVSPropertyOp17
 70
     0
102
RTVSPropertyOp18
 70
     0
102
RTVSPropertyOp19
 70
     0
102
RTVSPropertyOp20
 70
     0
102
RTVSPropertyOp21
 70
     0
102
RTVSPropertyOp22
 70
     0
102
RTVSPropertyOp23
 70
     0
102
RTVSPropertyOp24
 70
     0
102
RTVSPropertyOp25
 70
     0
102
RTVSPropertyOp26
 70
     0
102
RTVSPropertyOp27
 70
     0
102
RTVSPropertyOp28
 70
     1
102
RTVSPropertyOp29
 70
     1
102
RTVSPropertyOp30
 70
     1
102
RTVSPropertyOp31
 70
     1
102
RTVSPropertyOp32
 70
     1
102
RTVSPropertyOp33
 70
     1
102
RTVSPropertyOp34
 70
     1
102
RTVSPropertyOp35
 70
     1
102
RTVSPropertyOp36
 70
     1
102
RTVSPropertyOp37
 70
     0
102
RTVSPropertyOp38
 70
     0
102
RTVSPropertyOp39
 70
     0
102
RTVSPropertyOp40
 70
     0
102
RTVSPropertyOp41
 70
     0
102
RTVSPropertyOp42
 70
     0
102
RTVSPropertyOp43
 70
     0
102
RTVSPropertyOp44
 70
     0
102
RTVSPropertyOp45
 70
     1
102
RTVSPropertyOp46
 70
     0
102
RTVSPropertyOp47
 70
     0
102
RTVSPropertyOp48
 70
     0
102
RTVSPropertyOp49
 70
     1
102
RTVSPropertyOp50
 70
     0
102
RTVSPropertyOp51
 70
     0
102
RTVSPropertyOp52
 70
     0
102
RTVSPropertyOp53
 70
     0
102
RTVSPropertyOp54
 70
     0
102
RTVSPropertyOp55
 70
     1
102
RTVSPropertyOp56
 70
     0
102
RTVSPropertyOp57
 70
     0
102
RTVSPropertyOp58
 70
     0
102
RTVSPropertyOp59
 70
     0
102
RTVSPropertyOp60
 70
     0
102
RTVSPropertyOp61
 70
     0
102
RTVSPropertyOp62
 70
     0
  0
XRECORD
  5
52AA
102
{ACAD_REACTORS
330
52A9
102
}
330
52A9
100
AcDbXrecord
280
     1
102
RTVSPost2010Prop28
280
     0
102
RTVSPost2010PropOp28
 70
     1
102
RTVSPost2010Prop29
280
     1
102
RTVSPost2010PropOp29
 70
     1
102
RTVSPost2010Prop30
280
     1
102
RTVSPost2010PropOp30
 70
     1
102
RTVSPost2010Prop31
280
     0
102
RTVSPost2010PropOp31
 70
     1
102
RTVSPost2010Prop32
280
     0
102
RTVSPost2010PropOp32
 70
     1
102
RTVSPost2010Prop33
280
     0
102
RTVSPost2010PropOp33
 70
     1
102
RTVSPost2010Prop34
280
     0
102
RTVSPost2010PropOp34
 70
     1
102
RTVSPost2010Prop35
280
     0
102
RTVSPost2010PropOp35
 70
     1
102
RTVSPost2010Prop36
280
     0
102
RTVSPost2010PropOp36
 70
     1
102
RTVSPost2010Prop37
 90
       50
102
RTVSPost2010PropOp37
 70
     1
102
RTVSPost2010Prop38
140
0.0
102
RTVSPost2010PropOp38
 70
     1
102
RTVSPost2010Prop39
140
1.0
102
RTVSPost2010PropOp39
 70
     1
102
RTVSPost2010Prop40
 90
        0
102
RTVSPost2010PropOp40
 70
     1
102
RTVSPost2010Prop41ColorIndex
 90
       18
102
RTVSPost2010Prop41ColorRGB
 90
        0
102
RTVSPost2010PropOp41
 70
     1
102
RTVSPost2010Prop42
 90
       50
102
RTVSPost2010PropOp42
 70
     1
102
RTVSPost2010Prop43
 90
        3
102
RTVSPost2010PropOp43
 70
     1
102
RTVSPost2010Prop44ColorIndex
 90
        5
102
RTVSPost2010Prop44ColorRGB
 90
      255
102
RTVSPost2010PropOp44
 70
     1
102
RTVSPost2010Prop45
280
     0
102
RTVSPost2010PropOp45
 70
     1
102
RTVSPost2010Prop46
 90
       50
102
RTVSPost2010PropOp46
 70
     1
102
RTVSPost2010Prop47
 90
       50
102
RTVSPost2010PropOp47
 70
     1
102
RTVSPost2010Prop48
 90
       50
102
RTVSPost2010PropOp48
 70
     1
102
RTVSPost2010Prop49
280
     0
102
RTVSPost2010PropOp49
 70
     1
102
RTVSPost2010Prop50
 90
       50
102
RTVSPost2010PropOp50
 70
     1
102
RTVSPost2010Prop51ColorIndex
 90
      256
102
RTVSPost2010Prop51ColorRGB
 90
-16777216
102
RTVSPost2010PropOp51
 70
     0
102
RTVSPost2010Prop52
140
1.0
102
RTVSPost2010PropOp52
 70
     0
102
RTVSPost2010Prop53
 90
        2
102
RTVSPost2010PropOp53
 70
     1
102
RTVSPost2010Prop54
  1
strokes_ogs.tif
102
RTVSPost2010PropOp54
 70
     1
102
RTVSPost2010Prop55
280
     0
102
RTVSPost2010PropOp55
 70
     1
102
RTVSPost2010Prop56
140
1.0
102
RTVSPost2010PropOp56
 70
     1
102
RTVSPost2010Prop57
140
1.0
102
RTVSPost2010PropOp57
 70
     1
102
RTVSPropertyOp0
 70
     1
102
RTVSPropertyOp1
 70
     1
102
RTVSPropertyOp2
 70
     1
102
RTVSPropertyOp3
 70
     1
102
RTVSPropertyOp4
 70
     1
102
RTVSPropertyOp5
 70
     1
102
RTVSPropertyOp6
 70
     1
102
RTVSPropertyOp7
 70
     1
102
RTVSPropertyOp8
 70
     1
102
RTVSPropertyOp9
 70
     1
102
RTVSPropertyOp10
 70
     1
102
RTVSPropertyOp11
 70
     1
102
RTVSPropertyOp12
 70
     1
102
RTVSPropertyOp13
 70
     1
102
RTVSPropertyOp14
 70
     1
102
RTVSPropertyOp15
 70
     1
102
RTVSPropertyOp16
 70
     1
102
RTVSPropertyOp17
 70
     1
102
RTVSPropertyOp18
 70
     1
102
RTVSPropertyOp19
 70
     1
102
RTVSPropertyOp20
 70
     1
102
RTVSPropertyOp21
 70
     1
102
RTVSPropertyOp22
 70
     1
102
RTVSPropertyOp23
 70
     1
102
RTVSPropertyOp24
 70
     1
102
RTVSPropertyOp25
 70
     1
102
RTVSPropertyOp26
 70
     1
102
RTVSPropertyOp27
 70
     1
102
RTVSPropertyOp28
 70
     1
102
RTVSPropertyOp29
 70
     1
102
RTVSPropertyOp30
 70
     1
102
RTVSPropertyOp31
 70
     1
102
RTVSPropertyOp32
 70
     1
102
RTVSPropertyOp33
 70
     1
102
RTVSPropertyOp34
 70
     1
102
RTVSPropertyOp35
 70
     1
102
RTVSPropertyOp36
 70
     1
102
RTVSPropertyOp37
 70
     1
102
RTVSPropertyOp38
 70
     1
102
RTVSPropertyOp39
 70
     1
102
RTVSPropertyOp40
 70
     1
102
RTVSPropertyOp41
 70
     1
102
RTVSPropertyOp42
 70
     1
102
RTVSPropertyOp43
 70
     1
102
RTVSPropertyOp44
 70
     1
102
RTVSPropertyOp45
 70
     1
102
RTVSPropertyOp46
 70
     1
102
RTVSPropertyOp47
 70
     1
102
RTVSPropertyOp48
 70
     1
102
RTVSPropertyOp49
 70
     1
102
RTVSPropertyOp50
 70
     1
102
RTVSPropertyOp51
 70
     0
102
RTVSPropertyOp52
 70
     0
102
RTVSPropertyOp53
 70
     1
102
RTVSPropertyOp54
 70
     1
102
RTVSPropertyOp55
 70
     1
102
RTVSPropertyOp56
 70
     1
102
RTVSPropertyOp57
 70
     1
102
RTVSPropertyOp58
 70
     1
102
RTVSPropertyOp59
 70
     1
102
RTVSPropertyOp60
 70
     1
102
RTVSPropertyOp61
 70
     1
102
RTVSPropertyOp62
 70
     1
  0
XRECORD
  5
528E
102
{ACAD_REACTORS
330
528D
102
}
330
528D
100
AcDbXrecord
280
     1
102
RTVSPost2010Prop28
280
     0
102
RTVSPost2010PropOp28
 70
     1
102
RTVSPost2010Prop29
280
     1
102
RTVSPost2010PropOp29
 70
     1
102
RTVSPost2010Prop30
280
     1
102
RTVSPost2010PropOp30
 70
     1
102
RTVSPost2010Prop31
280
     0
102
RTVSPost2010PropOp31
 70
     1
102
RTVSPost2010Prop32
280
     0
102
RTVSPost2010PropOp32
 70
     1
102
RTVSPost2010Prop33
280
     0
102
RTVSPost2010PropOp33
 70
     1
102
RTVSPost2010Prop34
280
     0
102
RTVSPost2010PropOp34
 70
     1
102
RTVSPost2010Prop35
280
     0
102
RTVSPost2010PropOp35
 70
     1
102
RTVSPost2010Prop36
280
     0
102
RTVSPost2010PropOp36
 70
     1
102
RTVSPost2010Prop37
 90
       50
102
RTVSPost2010PropOp37
 70
     1
102
RTVSPost2010Prop38
140
0.0
102
RTVSPost2010PropOp38
 70
     1
102
RTVSPost2010Prop39
140
1.0
102
RTVSPost2010PropOp39
 70
     1
102
RTVSPost2010Prop40
 90
        0
102
RTVSPost2010PropOp40
 70
     1
102
RTVSPost2010Prop41ColorIndex
 90
       18
102
RTVSPost2010Prop41ColorRGB
 90
        0
102
RTVSPost2010PropOp41
 70
     1
102
RTVSPost2010Prop42
 90
       50
102
RTVSPost2010PropOp42
 70
     1
102
RTVSPost2010Prop43
 90
        3
102
RTVSPost2010PropOp43
 70
     1
102
RTVSPost2010Prop44ColorIndex
 90
        5
102
RTVSPost2010Prop44ColorRGB
 90
      255
102
RTVSPost2010PropOp44
 70
     1
102
RTVSPost2010Prop45
280
     0
102
RTVSPost2010PropOp45
 70
     1
102
RTVSPost2010Prop46
 90
       50
102
RTVSPost2010PropOp46
 70
     1
102
RTVSPost2010Prop47
 90
       50
102
RTVSPost2010PropOp47
 70
     1
102
RTVSPost2010Prop48
 90
       50
102
RTVSPost2010PropOp48
 70
     1
102
RTVSPost2010Prop49
280
     0
102
RTVSPost2010PropOp49
 70
     1
102
RTVSPost2010Prop50
 90
       50
102
RTVSPost2010PropOp50
 70
     1
102
RTVSPost2010Prop51ColorIndex
 90
      256
102
RTVSPost2010Prop51ColorRGB
 90
-16777216
102
RTVSPost2010PropOp51
 70
     0
102
RTVSPost2010Prop52
140
1.0
102
RTVSPost2010PropOp52
 70
     0
102
RTVSPost2010Prop53
 90
        2
102
RTVSPost2010PropOp53
 70
     1
102
RTVSPost2010Prop54
  1
strokes_ogs.tif
102
RTVSPost2010PropOp54
 70
     1
102
RTVSPost2010Prop55
280
     0
102
RTVSPost2010PropOp55
 70
     1
102
RTVSPost2010Prop56
140
1.0
102
RTVSPost2010PropOp56
 70
     1
102
RTVSPost2010Prop57
140
1.0
102
RTVSPost2010PropOp57
 70
     1
102
RTVSPropertyOp0
 70
     1
102
RTVSPropertyOp1
 70
     1
102
RTVSPropertyOp2
 70
     1
102
RTVSPropertyOp3
 70
     1
102
RTVSPropertyOp4
 70
     1
102
RTVSPropertyOp5
 70
     1
102
RTVSPropertyOp6
 70
     1
102
RTVSPropertyOp7
 70
     1
102
RTVSPropertyOp8
 70
     1
102
RTVSPropertyOp9
 70
     1
102
RTVSPropertyOp10
 70
     1
102
RTVSPropertyOp11
 70
     1
102
RTVSPropertyOp12
 70
     1
102
RTVSPropertyOp13
 70
     1
102
RTVSPropertyOp14
 70
     1
102
RTVSPropertyOp15
 70
     1
102
RTVSPropertyOp16
 70
     1
102
RTVSPropertyOp17
 70
     1
102
RTVSPropertyOp18
 70
     1
102
RTVSPropertyOp19
 70
     1
102
RTVSPropertyOp20
 70
     1
102
RTVSPropertyOp21
 70
     1
102
RTVSPropertyOp22
 70
     1
102
RTVSPropertyOp23
 70
     1
102
RTVSPropertyOp24
 70
     1
102
RTVSPropertyOp25
 70
     1
102
RTVSPropertyOp26
 70
     1
102
RTVSPropertyOp27
 70
     1
102
RTVSPropertyOp28
 70
     1
102
RTVSPropertyOp29
 70
     1
102
RTVSPropertyOp30
 70
     1
102
RTVSPropertyOp31
 70
     1
102
RTVSPropertyOp32
 70
     1
102
RTVSPropertyOp33
 70
     1
102
RTVSPropertyOp34
 70
     1
102
RTVSPropertyOp35
 70
     1
102
RTVSPropertyOp36
 70
     1
102
RTVSPropertyOp37
 70
     1
102
RTVSPropertyOp38
 70
     1
102
RTVSPropertyOp39
 70
     1
102
RTVSPropertyOp40
 70
     1
102
RTVSPropertyOp41
 70
     1
102
RTVSPropertyOp42
 70
     1
102
RTVSPropertyOp43
 70
     1
102
RTVSPropertyOp44
 70
     1
102
RTVSPropertyOp45
 70
     1
102
RTVSPropertyOp46
 70
     1
102
RTVSPropertyOp47
 70
     1
102
RTVSPropertyOp48
 70
     1
102
RTVSPropertyOp49
 70
     1
102
RTVSPropertyOp50
 70
     1
102
RTVSPropertyOp51
 70
     0
102
RTVSPropertyOp52
 70
     0
102
RTVSPropertyOp53
 70
     1
102
RTVSPropertyOp54
 70
     1
102
RTVSPropertyOp55
 70
     1
102
RTVSPropertyOp56
 70
     1
102
RTVSPropertyOp57
 70
     1
102
RTVSPropertyOp58
 70
     1
102
RTVSPropertyOp59
 70
     1
102
RTVSPropertyOp60
 70
     1
102
RTVSPropertyOp61
 70
     1
102
RTVSPropertyOp62
 70
     1
  0
XRECORD
  5
5290
102
{ACAD_REACTORS
330
528F
102
}
330
528F
100
AcDbXrecord
280
     1
102
RTVSPost2010Prop28
280
     0
102
RTVSPost2010PropOp28
 70
     1
102
RTVSPost2010Prop29
280
     1
102
RTVSPost2010PropOp29
 70
     1
102
RTVSPost2010Prop30
280
     1
102
RTVSPost2010PropOp30
 70
     1
102
RTVSPost2010Prop31
280
     0
102
RTVSPost2010PropOp31
 70
     1
102
RTVSPost2010Prop32
280
     0
102
RTVSPost2010PropOp32
 70
     1
102
RTVSPost2010Prop33
280
     0
102
RTVSPost2010PropOp33
 70
     1
102
RTVSPost2010Prop34
280
     0
102
RTVSPost2010PropOp34
 70
     1
102
RTVSPost2010Prop35
280
     0
102
RTVSPost2010PropOp35
 70
     1
102
RTVSPost2010Prop36
280
     0
102
RTVSPost2010PropOp36
 70
     1
102
RTVSPost2010Prop37
 90
       50
102
RTVSPost2010PropOp37
 70
     1
102
RTVSPost2010Prop38
140
0.0
102
RTVSPost2010PropOp38
 70
     1
102
RTVSPost2010Prop39
140
1.0
102
RTVSPost2010PropOp39
 70
     1
102
RTVSPost2010Prop40
 90
        0
102
RTVSPost2010PropOp40
 70
     1
102
RTVSPost2010Prop41ColorIndex
 90
       18
102
RTVSPost2010Prop41ColorRGB
 90
        0
102
RTVSPost2010PropOp41
 70
     1
102
RTVSPost2010Prop42
 90
       50
102
RTVSPost2010PropOp42
 70
     1
102
RTVSPost2010Prop43
 90
        3
102
RTVSPost2010PropOp43
 70
     1
102
RTVSPost2010Prop44ColorIndex
 90
        5
102
RTVSPost2010Prop44ColorRGB
 90
      255
102
RTVSPost2010PropOp44
 70
     1
102
RTVSPost2010Prop45
280
     0
102
RTVSPost2010PropOp45
 70
     1
102
RTVSPost2010Prop46
 90
       50
102
RTVSPost2010PropOp46
 70
     1
102
RTVSPost2010Prop47
 90
       50
102
RTVSPost2010PropOp47
 70
     1
102
RTVSPost2010Prop48
 90
       50
102
RTVSPost2010PropOp48
 70
     1
102
RTVSPost2010Prop49
280
     0
102
RTVSPost2010PropOp49
 70
     1
102
RTVSPost2010Prop50
 90
       50
102
RTVSPost2010PropOp50
 70
     1
102
RTVSPost2010Prop51ColorIndex
 90
      256
102
RTVSPost2010Prop51ColorRGB
 90
-16777216
102
RTVSPost2010PropOp51
 70
     0
102
RTVSPost2010Prop52
140
1.0
102
RTVSPost2010PropOp52
 70
     0
102
RTVSPost2010Prop53
 90
        2
102
RTVSPost2010PropOp53
 70
     1
102
RTVSPost2010Prop54
  1
strokes_ogs.tif
102
RTVSPost2010PropOp54
 70
     1
102
RTVSPost2010Prop55
280
     0
102
RTVSPost2010PropOp55
 70
     1
102
RTVSPost2010Prop56
140
1.0
102
RTVSPost2010PropOp56
 70
     1
102
RTVSPost2010Prop57
140
1.0
102
RTVSPost2010PropOp57
 70
     1
102
RTVSPropertyOp0
 70
     1
102
RTVSPropertyOp1
 70
     1
102
RTVSPropertyOp2
 70
     1
102
RTVSPropertyOp3
 70
     1
102
RTVSPropertyOp4
 70
     1
102
RTVSPropertyOp5
 70
     1
102
RTVSPropertyOp6
 70
     1
102
RTVSPropertyOp7
 70
     1
102
RTVSPropertyOp8
 70
     1
102
RTVSPropertyOp9
 70
     1
102
RTVSPropertyOp10
 70
     1
102
RTVSPropertyOp11
 70
     1
102
RTVSPropertyOp12
 70
     1
102
RTVSPropertyOp13
 70
     1
102
RTVSPropertyOp14
 70
     1
102
RTVSPropertyOp15
 70
     1
102
RTVSPropertyOp16
 70
     1
102
RTVSPropertyOp17
 70
     1
102
RTVSPropertyOp18
 70
     1
102
RTVSPropertyOp19
 70
     1
102
RTVSPropertyOp20
 70
     1
102
RTVSPropertyOp21
 70
     1
102
RTVSPropertyOp22
 70
     1
102
RTVSPropertyOp23
 70
     1
102
RTVSPropertyOp24
 70
     1
102
RTVSPropertyOp25
 70
     1
102
RTVSPropertyOp26
 70
     1
102
RTVSPropertyOp27
 70
     1
102
RTVSPropertyOp28
 70
     1
102
RTVSPropertyOp29
 70
     1
102
RTVSPropertyOp30
 70
     1
102
RTVSPropertyOp31
 70
     1
102
RTVSPropertyOp32
 70
     1
102
RTVSPropertyOp33
 70
     1
102
RTVSPropertyOp34
 70
     1
102
RTVSPropertyOp35
 70
     1
102
RTVSPropertyOp36
 70
     1
102
RTVSPropertyOp37
 70
     1
102
RTVSPropertyOp38
 70
     1
102
RTVSPropertyOp39
 70
     1
102
RTVSPropertyOp40
 70
     1
102
RTVSPropertyOp41
 70
     1
102
RTVSPropertyOp42
 70
     1
102
RTVSPropertyOp43
 70
     1
102
RTVSPropertyOp44
 70
     1
102
RTVSPropertyOp45
 70
     1
102
RTVSPropertyOp46
 70
     1
102
RTVSPropertyOp47
 70
     1
102
RTVSPropertyOp48
 70
     1
102
RTVSPropertyOp49
 70
     1
102
RTVSPropertyOp50
 70
     1
102
RTVSPropertyOp51
 70
     0
102
RTVSPropertyOp52
 70
     0
102
RTVSPropertyOp53
 70
     1
102
RTVSPropertyOp54
 70
     1
102
RTVSPropertyOp55
 70
     1
102
RTVSPropertyOp56
 70
     1
102
RTVSPropertyOp57
 70
     1
102
RTVSPropertyOp58
 70
     1
102
RTVSPropertyOp59
 70
     1
102
RTVSPropertyOp60
 70
     1
102
RTVSPropertyOp61
 70
     1
102
RTVSPropertyOp62
 70
     1
  0
XRECORD
  5
5292
102
{ACAD_REACTORS
330
5291
102
}
330
5291
100
AcDbXrecord
280
     1
102
RTVSPost2010Prop28
280
     0
102
RTVSPost2010PropOp28
 70
     1
102
RTVSPost2010Prop29
280
     1
102
RTVSPost2010PropOp29
 70
     1
102
RTVSPost2010Prop30
280
     1
102
RTVSPost2010PropOp30
 70
     1
102
RTVSPost2010Prop31
280
     0
102
RTVSPost2010PropOp31
 70
     1
102
RTVSPost2010Prop32
280
     0
102
RTVSPost2010PropOp32
 70
     1
102
RTVSPost2010Prop33
280
     0
102
RTVSPost2010PropOp33
 70
     1
102
RTVSPost2010Prop34
280
     0
102
RTVSPost2010PropOp34
 70
     1
102
RTVSPost2010Prop35
280
     0
102
RTVSPost2010PropOp35
 70
     1
102
RTVSPost2010Prop36
280
     0
102
RTVSPost2010PropOp36
 70
     1
102
RTVSPost2010Prop37
 90
       50
102
RTVSPost2010PropOp37
 70
     1
102
RTVSPost2010Prop38
140
0.0
102
RTVSPost2010PropOp38
 70
     1
102
RTVSPost2010Prop39
140
1.0
102
RTVSPost2010PropOp39
 70
     1
102
RTVSPost2010Prop40
 90
        0
102
RTVSPost2010PropOp40
 70
     1
102
RTVSPost2010Prop41ColorIndex
 90
       18
102
RTVSPost2010Prop41ColorRGB
 90
        0
102
RTVSPost2010PropOp41
 70
     1
102
RTVSPost2010Prop42
 90
       50
102
RTVSPost2010PropOp42
 70
     1
102
RTVSPost2010Prop43
 90
        3
102
RTVSPost2010PropOp43
 70
     1
102
RTVSPost2010Prop44ColorIndex
 90
        5
102
RTVSPost2010Prop44ColorRGB
 90
      255
102
RTVSPost2010PropOp44
 70
     1
102
RTVSPost2010Prop45
280
     0
102
RTVSPost2010PropOp45
 70
     1
102
RTVSPost2010Prop46
 90
       50
102
RTVSPost2010PropOp46
 70
     1
102
RTVSPost2010Prop47
 90
       50
102
RTVSPost2010PropOp47
 70
     1
102
RTVSPost2010Prop48
 90
       50
102
RTVSPost2010PropOp48
 70
     1
102
RTVSPost2010Prop49
280
     0
102
RTVSPost2010PropOp49
 70
     1
102
RTVSPost2010Prop50
 90
       50
102
RTVSPost2010PropOp50
 70
     1
102
RTVSPost2010Prop51ColorIndex
 90
      256
102
RTVSPost2010Prop51ColorRGB
 90
-16777216
102
RTVSPost2010PropOp51
 70
     0
102
RTVSPost2010Prop52
140
1.0
102
RTVSPost2010PropOp52
 70
     0
102
RTVSPost2010Prop53
 90
        2
102
RTVSPost2010PropOp53
 70
     1
102
RTVSPost2010Prop54
  1
strokes_ogs.tif
102
RTVSPost2010PropOp54
 70
     1
102
RTVSPost2010Prop55
280
     0
102
RTVSPost2010PropOp55
 70
     1
102
RTVSPost2010Prop56
140
1.0
102
RTVSPost2010PropOp56
 70
     1
102
RTVSPost2010Prop57
140
1.0
102
RTVSPost2010PropOp57
 70
     1
102
RTVSPropertyOp0
 70
     1
102
RTVSPropertyOp1
 70
     1
102
RTVSPropertyOp2
 70
     1
102
RTVSPropertyOp3
 70
     1
102
RTVSPropertyOp4
 70
     1
102
RTVSPropertyOp5
 70
     1
102
RTVSPropertyOp6
 70
     1
102
RTVSPropertyOp7
 70
     1
102
RTVSPropertyOp8
 70
     1
102
RTVSPropertyOp9
 70
     1
102
RTVSPropertyOp10
 70
     1
102
RTVSPropertyOp11
 70
     1
102
RTVSPropertyOp12
 70
     1
102
RTVSPropertyOp13
 70
     1
102
RTVSPropertyOp14
 70
     1
102
RTVSPropertyOp15
 70
     1
102
RTVSPropertyOp16
 70
     1
102
RTVSPropertyOp17
 70
     1
102
RTVSPropertyOp18
 70
     1
102
RTVSPropertyOp19
 70
     1
102
RTVSPropertyOp20
 70
     1
102
RTVSPropertyOp21
 70
     1
102
RTVSPropertyOp22
 70
     1
102
RTVSPropertyOp23
 70
     1
102
RTVSPropertyOp24
 70
     1
102
RTVSPropertyOp25
 70
     1
102
RTVSPropertyOp26
 70
     1
102
RTVSPropertyOp27
 70
     1
102
RTVSPropertyOp28
 70
     1
102
RTVSPropertyOp29
 70
     1
102
RTVSPropertyOp30
 70
     1
102
RTVSPropertyOp31
 70
     1
102
RTVSPropertyOp32
 70
     1
102
RTVSPropertyOp33
 70
     1
102
RTVSPropertyOp34
 70
     1
102
RTVSPropertyOp35
 70
     1
102
RTVSPropertyOp36
 70
     1
102
RTVSPropertyOp37
 70
     1
102
RTVSPropertyOp38
 70
     1
102
RTVSPropertyOp39
 70
     1
102
RTVSPropertyOp40
 70
     1
102
RTVSPropertyOp41
 70
     1
102
RTVSPropertyOp42
 70
     1
102
RTVSPropertyOp43
 70
     1
102
RTVSPropertyOp44
 70
     1
102
RTVSPropertyOp45
 70
     1
102
RTVSPropertyOp46
 70
     1
102
RTVSPropertyOp47
 70
     1
102
RTVSPropertyOp48
 70
     1
102
RTVSPropertyOp49
 70
     1
102
RTVSPropertyOp50
 70
     1
102
RTVSPropertyOp51
 70
     0
102
RTVSPropertyOp52
 70
     0
102
RTVSPropertyOp53
 70
     1
102
RTVSPropertyOp54
 70
     1
102
RTVSPropertyOp55
 70
     1
102
RTVSPropertyOp56
 70
     1
102
RTVSPropertyOp57
 70
     1
102
RTVSPropertyOp58
 70
     1
102
RTVSPropertyOp59
 70
     1
102
RTVSPropertyOp60
 70
     1
102
RTVSPropertyOp61
 70
     1
102
RTVSPropertyOp62
 70
     1
  0
XRECORD
  5
5294
102
{ACAD_REACTORS
330
5293
102
}
330
5293
100
AcDbXrecord
280
     1
102
RTVSPost2010Prop28
280
     0
102
RTVSPost2010PropOp28
 70
     1
102
RTVSPost2010Prop29
280
     1
102
RTVSPost2010PropOp29
 70
     1
102
RTVSPost2010Prop30
280
     1
102
RTVSPost2010PropOp30
 70
     1
102
RTVSPost2010Prop31
280
     0
102
RTVSPost2010PropOp31
 70
     1
102
RTVSPost2010Prop32
280
     0
102
RTVSPost2010PropOp32
 70
     1
102
RTVSPost2010Prop33
280
     0
102
RTVSPost2010PropOp33
 70
     1
102
RTVSPost2010Prop34
280
     0
102
RTVSPost2010PropOp34
 70
     1
102
RTVSPost2010Prop35
280
     0
102
RTVSPost2010PropOp35
 70
     1
102
RTVSPost2010Prop36
280
     0
102
RTVSPost2010PropOp36
 70
     1
102
RTVSPost2010Prop37
 90
       50
102
RTVSPost2010PropOp37
 70
     1
102
RTVSPost2010Prop38
140
0.0
102
RTVSPost2010PropOp38
 70
     1
102
RTVSPost2010Prop39
140
1.0
102
RTVSPost2010PropOp39
 70
     1
102
RTVSPost2010Prop40
 90
        0
102
RTVSPost2010PropOp40
 70
     1
102
RTVSPost2010Prop41ColorIndex
 90
       18
102
RTVSPost2010Prop41ColorRGB
 90
        0
102
RTVSPost2010PropOp41
 70
     1
102
RTVSPost2010Prop42
 90
       50
102
RTVSPost2010PropOp42
 70
     1
102
RTVSPost2010Prop43
 90
        3
102
RTVSPost2010PropOp43
 70
     1
102
RTVSPost2010Prop44ColorIndex
 90
        5
102
RTVSPost2010Prop44ColorRGB
 90
      255
102
RTVSPost2010PropOp44
 70
     1
102
RTVSPost2010Prop45
280
     0
102
RTVSPost2010PropOp45
 70
     1
102
RTVSPost2010Prop46
 90
       50
102
RTVSPost2010PropOp46
 70
     1
102
RTVSPost2010Prop47
 90
       50
102
RTVSPost2010PropOp47
 70
     1
102
RTVSPost2010Prop48
 90
       50
102
RTVSPost2010PropOp48
 70
     1
102
RTVSPost2010Prop49
280
     0
102
RTVSPost2010PropOp49
 70
     1
102
RTVSPost2010Prop50
 90
       50
102
RTVSPost2010PropOp50
 70
     1
102
RTVSPost2010Prop51ColorIndex
 90
      256
102
RTVSPost2010Prop51ColorRGB
 90
-16777216
102
RTVSPost2010PropOp51
 70
     0
102
RTVSPost2010Prop52
140
1.0
102
RTVSPost2010PropOp52
 70
     0
102
RTVSPost2010Prop53
 90
        2
102
RTVSPost2010PropOp53
 70
     1
102
RTVSPost2010Prop54
  1
strokes_ogs.tif
102
RTVSPost2010PropOp54
 70
     1
102
RTVSPost2010Prop55
280
     0
102
RTVSPost2010PropOp55
 70
     1
102
RTVSPost2010Prop56
140
1.0
102
RTVSPost2010PropOp56
 70
     1
102
RTVSPost2010Prop57
140
1.0
102
RTVSPost2010PropOp57
 70
     1
102
RTVSPropertyOp0
 70
     1
102
RTVSPropertyOp1
 70
     1
102
RTVSPropertyOp2
 70
     1
102
RTVSPropertyOp3
 70
     1
102
RTVSPropertyOp4
 70
     1
102
RTVSPropertyOp5
 70
     1
102
RTVSPropertyOp6
 70
     1
102
RTVSPropertyOp7
 70
     1
102
RTVSPropertyOp8
 70
     1
102
RTVSPropertyOp9
 70
     1
102
RTVSPropertyOp10
 70
     1
102
RTVSPropertyOp11
 70
     1
102
RTVSPropertyOp12
 70
     1
102
RTVSPropertyOp13
 70
     1
102
RTVSPropertyOp14
 70
     1
102
RTVSPropertyOp15
 70
     1
102
RTVSPropertyOp16
 70
     1
102
RTVSPropertyOp17
 70
     1
102
RTVSPropertyOp18
 70
     1
102
RTVSPropertyOp19
 70
     1
102
RTVSPropertyOp20
 70
     1
102
RTVSPropertyOp21
 70
     1
102
RTVSPropertyOp22
 70
     1
102
RTVSPropertyOp23
 70
     1
102
RTVSPropertyOp24
 70
     1
102
RTVSPropertyOp25
 70
     1
102
RTVSPropertyOp26
 70
     1
102
RTVSPropertyOp27
 70
     1
102
RTVSPropertyOp28
 70
     1
102
RTVSPropertyOp29
 70
     1
102
RTVSPropertyOp30
 70
     1
102
RTVSPropertyOp31
 70
     1
102
RTVSPropertyOp32
 70
     1
102
RTVSPropertyOp33
 70
     1
102
RTVSPropertyOp34
 70
     1
102
RTVSPropertyOp35
 70
     1
102
RTVSPropertyOp36
 70
     1
102
RTVSPropertyOp37
 70
     1
102
RTVSPropertyOp38
 70
     1
102
RTVSPropertyOp39
 70
     1
102
RTVSPropertyOp40
 70
     1
102
RTVSPropertyOp41
 70
     1
102
RTVSPropertyOp42
 70
     1
102
RTVSPropertyOp43
 70
     1
102
RTVSPropertyOp44
 70
     1
102
RTVSPropertyOp45
 70
     1
102
RTVSPropertyOp46
 70
     1
102
RTVSPropertyOp47
 70
     1
102
RTVSPropertyOp48
 70
     1
102
RTVSPropertyOp49
 70
     1
102
RTVSPropertyOp50
 70
     1
102
RTVSPropertyOp51
 70
     0
102
RTVSPropertyOp52
 70
     0
102
RTVSPropertyOp53
 70
     1
102
RTVSPropertyOp54
 70
     1
102
RTVSPropertyOp55
 70
     1
102
RTVSPropertyOp56
 70
     1
102
RTVSPropertyOp57
 70
     1
102
RTVSPropertyOp58
 70
     1
102
RTVSPropertyOp59
 70
     1
102
RTVSPropertyOp60
 70
     1
102
RTVSPropertyOp61
 70
     1
102
RTVSPropertyOp62
 70
     1
  0
XRECORD
  5
529C
102
{ACAD_REACTORS
330
529B
102
}
330
529B
100
AcDbXrecord
280
     1
102
RTVSPost2010Prop28
280
     0
102
RTVSPost2010PropOp28
 70
     1
102
RTVSPost2010Prop29
280
     1
102
RTVSPost2010PropOp29
 70
     1
102
RTVSPost2010Prop30
280
     1
102
RTVSPost2010PropOp30
 70
     1
102
RTVSPost2010Prop31
280
     0
102
RTVSPost2010PropOp31
 70
     1
102
RTVSPost2010Prop32
280
     0
102
RTVSPost2010PropOp32
 70
     1
102
RTVSPost2010Prop33
280
     0
102
RTVSPost2010PropOp33
 70
     1
102
RTVSPost2010Prop34
280
     0
102
RTVSPost2010PropOp34
 70
     1
102
RTVSPost2010Prop35
280
     0
102
RTVSPost2010PropOp35
 70
     1
102
RTVSPost2010Prop36
280
     0
102
RTVSPost2010PropOp36
 70
     1
102
RTVSPost2010Prop37
 90
       50
102
RTVSPost2010PropOp37
 70
     1
102
RTVSPost2010Prop38
140
0.0
102
RTVSPost2010PropOp38
 70
     1
102
RTVSPost2010Prop39
140
1.0
102
RTVSPost2010PropOp39
 70
     1
102
RTVSPost2010Prop40
 90
        0
102
RTVSPost2010PropOp40
 70
     1
102
RTVSPost2010Prop41ColorIndex
 90
       18
102
RTVSPost2010Prop41ColorRGB
 90
        0
102
RTVSPost2010PropOp41
 70
     1
102
RTVSPost2010Prop42
 90
       50
102
RTVSPost2010PropOp42
 70
     1
102
RTVSPost2010Prop43
 90
        3
102
RTVSPost2010PropOp43
 70
     1
102
RTVSPost2010Prop44ColorIndex
 90
        5
102
RTVSPost2010Prop44ColorRGB
 90
      255
102
RTVSPost2010PropOp44
 70
     1
102
RTVSPost2010Prop45
280
     0
102
RTVSPost2010PropOp45
 70
     1
102
RTVSPost2010Prop46
 90
       50
102
RTVSPost2010PropOp46
 70
     1
102
RTVSPost2010Prop47
 90
       50
102
RTVSPost2010PropOp47
 70
     1
102
RTVSPost2010Prop48
 90
       50
102
RTVSPost2010PropOp48
 70
     1
102
RTVSPost2010Prop49
280
     0
102
RTVSPost2010PropOp49
 70
     1
102
RTVSPost2010Prop50
 90
       50
102
RTVSPost2010PropOp50
 70
     1
102
RTVSPost2010Prop51ColorIndex
 90
      256
102
RTVSPost2010Prop51ColorRGB
 90
-16777216
102
RTVSPost2010PropOp51
 70
     0
102
RTVSPost2010Prop52
140
1.0
102
RTVSPost2010PropOp52
 70
     0
102
RTVSPost2010Prop53
 90
        2
102
RTVSPost2010PropOp53
 70
     1
102
RTVSPost2010Prop54
  1
strokes_ogs.tif
102
RTVSPost2010PropOp54
 70
     1
102
RTVSPost2010Prop55
280
     0
102
RTVSPost2010PropOp55
 70
     1
102
RTVSPost2010Prop56
140
1.0
102
RTVSPost2010PropOp56
 70
     1
102
RTVSPost2010Prop57
140
1.0
102
RTVSPost2010PropOp57
 70
     1
102
RTVSPropertyOp0
 70
     1
102
RTVSPropertyOp1
 70
     1
102
RTVSPropertyOp2
 70
     1
102
RTVSPropertyOp3
 70
     1
102
RTVSPropertyOp4
 70
     1
102
RTVSPropertyOp5
 70
     1
102
RTVSPropertyOp6
 70
     1
102
RTVSPropertyOp7
 70
     1
102
RTVSPropertyOp8
 70
     1
102
RTVSPropertyOp9
 70
     1
102
RTVSPropertyOp10
 70
     1
102
RTVSPropertyOp11
 70
     1
102
RTVSPropertyOp12
 70
     1
102
RTVSPropertyOp13
 70
     1
102
RTVSPropertyOp14
 70
     1
102
RTVSPropertyOp15
 70
     1
102
RTVSPropertyOp16
 70
     1
102
RTVSPropertyOp17
 70
     1
102
RTVSPropertyOp18
 70
     1
102
RTVSPropertyOp19
 70
     1
102
RTVSPropertyOp20
 70
     1
102
RTVSPropertyOp21
 70
     1
102
RTVSPropertyOp22
 70
     1
102
RTVSPropertyOp23
 70
     1
102
RTVSPropertyOp24
 70
     1
102
RTVSPropertyOp25
 70
     1
102
RTVSPropertyOp26
 70
     1
102
RTVSPropertyOp27
 70
     1
102
RTVSPropertyOp28
 70
     1
102
RTVSPropertyOp29
 70
     1
102
RTVSPropertyOp30
 70
     1
102
RTVSPropertyOp31
 70
     1
102
RTVSPropertyOp32
 70
     1
102
RTVSPropertyOp33
 70
     1
102
RTVSPropertyOp34
 70
     1
102
RTVSPropertyOp35
 70
     1
102
RTVSPropertyOp36
 70
     1
102
RTVSPropertyOp37
 70
     1
102
RTVSPropertyOp38
 70
     1
102
RTVSPropertyOp39
 70
     1
102
RTVSPropertyOp40
 70
     1
102
RTVSPropertyOp41
 70
     1
102
RTVSPropertyOp42
 70
     1
102
RTVSPropertyOp43
 70
     1
102
RTVSPropertyOp44
 70
     1
102
RTVSPropertyOp45
 70
     1
102
RTVSPropertyOp46
 70
     1
102
RTVSPropertyOp47
 70
     1
102
RTVSPropertyOp48
 70
     1
102
RTVSPropertyOp49
 70
     1
102
RTVSPropertyOp50
 70
     1
102
RTVSPropertyOp51
 70
     0
102
RTVSPropertyOp52
 70
     0
102
RTVSPropertyOp53
 70
     1
102
RTVSPropertyOp54
 70
     1
102
RTVSPropertyOp55
 70
     1
102
RTVSPropertyOp56
 70
     1
102
RTVSPropertyOp57
 70
     1
102
RTVSPropertyOp58
 70
     1
102
RTVSPropertyOp59
 70
     1
102
RTVSPropertyOp60
 70
     1
102
RTVSPropertyOp61
 70
     1
102
RTVSPropertyOp62
 70
     1
  0
XRECORD
  5
52B8
102
{ACAD_REACTORS
330
52B7
102
}
330
52B7
100
AcDbXrecord
280
     1
102
RTVSPost2010Prop28
280
     0
102
RTVSPost2010PropOp28
 70
     1
102
RTVSPost2010Prop29
280
     1
102
RTVSPost2010PropOp29
 70
     1
102
RTVSPost2010Prop30
280
     1
102
RTVSPost2010PropOp30
 70
     1
102
RTVSPost2010Prop31
280
     0
102
RTVSPost2010PropOp31
 70
     1
102
RTVSPost2010Prop32
280
     0
102
RTVSPost2010PropOp32
 70
     1
102
RTVSPost2010Prop33
280
     0
102
RTVSPost2010PropOp33
 70
     1
102
RTVSPost2010Prop34
280
     0
102
RTVSPost2010PropOp34
 70
     1
102
RTVSPost2010Prop35
280
     0
102
RTVSPost2010PropOp35
 70
     1
102
RTVSPost2010Prop36
280
     0
102
RTVSPost2010PropOp36
 70
     1
102
RTVSPost2010Prop37
 90
       50
102
RTVSPost2010PropOp37
 70
     0
102
RTVSPost2010Prop38
140
0.0
102
RTVSPost2010PropOp38
 70
     0
102
RTVSPost2010Prop39
140
1.0
102
RTVSPost2010PropOp39
 70
     0
102
RTVSPost2010Prop40
 90
        0
102
RTVSPost2010PropOp40
 70
     0
102
RTVSPost2010Prop41ColorIndex
 90
       18
102
RTVSPost2010Prop41ColorRGB
 90
        0
102
RTVSPost2010PropOp41
 70
     0
102
RTVSPost2010Prop42
 90
       50
102
RTVSPost2010PropOp42
 70
     0
102
RTVSPost2010Prop43
 90
        3
102
RTVSPost2010PropOp43
 70
     0
102
RTVSPost2010Prop44ColorIndex
 90
        5
102
RTVSPost2010Prop44ColorRGB
 90
      255
102
RTVSPost2010PropOp44
 70
     0
102
RTVSPost2010Prop45
280
     0
102
RTVSPost2010PropOp45
 70
     1
102
RTVSPost2010Prop46
 90
       50
102
RTVSPost2010PropOp46
 70
     0
102
RTVSPost2010Prop47
 90
       50
102
RTVSPost2010PropOp47
 70
     0
102
RTVSPost2010Prop48
 90
       50
102
RTVSPost2010PropOp48
 70
     0
102
RTVSPost2010Prop49
280
     0
102
RTVSPost2010PropOp49
 70
     1
102
RTVSPost2010Prop50
 90
       50
102
RTVSPost2010PropOp50
 70
     0
102
RTVSPost2010Prop51ColorIndex
 90
      256
102
RTVSPost2010Prop51ColorRGB
 90
-16777216
102
RTVSPost2010PropOp51
 70
     0
102
RTVSPost2010Prop52
140
1.0
102
RTVSPost2010PropOp52
 70
     0
102
RTVSPost2010Prop53
 90
        2
102
RTVSPost2010PropOp53
 70
     0
102
RTVSPost2010Prop54
  1
strokes_ogs.tif
102
RTVSPost2010PropOp54
 70
     0
102
RTVSPost2010Prop55
280
     0
102
RTVSPost2010PropOp55
 70
     1
102
RTVSPost2010Prop56
140
1.0
102
RTVSPost2010PropOp56
 70
     0
102
RTVSPost2010Prop57
140
1.0
102
RTVSPost2010PropOp57
 70
     0
102
RTVSPropertyOp0
 70
     0
102
RTVSPropertyOp1
 70
     0
102
RTVSPropertyOp2
 70
     0
102
RTVSPropertyOp3
 70
     0
102
RTVSPropertyOp4
 70
     0
102
RTVSPropertyOp5
 70
     0
102
RTVSPropertyOp6
 70
     0
102
RTVSPropertyOp7
 70
     0
102
RTVSPropertyOp8
 70
     0
102
RTVSPropertyOp9
 70
     0
102
RTVSPropertyOp10
 70
     0
102
RTVSPropertyOp11
 70
     0
102
RTVSPropertyOp12
 70
     0
102
RTVSPropertyOp13
 70
     0
102
RTVSPropertyOp14
 70
     2
102
RTVSPropertyOp15
 70
     0
102
RTVSPropertyOp16
 70
     0
102
RTVSPropertyOp17
 70
     0
102
RTVSPropertyOp18
 70
     0
102
RTVSPropertyOp19
 70
     0
102
RTVSPropertyOp20
 70
     0
102
RTVSPropertyOp21
 70
     0
102
RTVSPropertyOp22
 70
     0
102
RTVSPropertyOp23
 70
     0
102
RTVSPropertyOp24
 70
     0
102
RTVSPropertyOp25
 70
     0
102
RTVSPropertyOp26
 70
     0
102
RTVSPropertyOp27
 70
     0
102
RTVSPropertyOp28
 70
     1
102
RTVSPropertyOp29
 70
     1
102
RTVSPropertyOp30
 70
     1
102
RTVSPropertyOp31
 70
     1
102
RTVSPropertyOp32
 70
     1
102
RTVSPropertyOp33
 70
     1
102
RTVSPropertyOp34
 70
     1
102
RTVSPropertyOp35
 70
     1
102
RTVSPropertyOp36
 70
     1
102
RTVSPropertyOp37
 70
     0
102
RTVSPropertyOp38
 70
     0
102
RTVSPropertyOp39
 70
     0
102
RTVSPropertyOp40
 70
     0
102
RTVSPropertyOp41
 70
     0
102
RTVSPropertyOp42
 70
     0
102
RTVSPropertyOp43
 70
     0
102
RTVSPropertyOp44
 70
     0
102
RTVSPropertyOp45
 70
     1
102
RTVSPropertyOp46
 70
     0
102
RTVSPropertyOp47
 70
     0
102
RTVSPropertyOp48
 70
     0
102
RTVSPropertyOp49
 70
     1
102
RTVSPropertyOp50
 70
     0
102
RTVSPropertyOp51
 70
     0
102
RTVSPropertyOp52
 70
     0
102
RTVSPropertyOp53
 70
     0
102
RTVSPropertyOp54
 70
     0
102
RTVSPropertyOp55
 70
     1
102
RTVSPropertyOp56
 70
     0
102
RTVSPropertyOp57
 70
     0
102
RTVSPropertyOp58
 70
     0
102
RTVSPropertyOp59
 70
     0
102
RTVSPropertyOp60
 70
     0
102
RTVSPropertyOp61
 70
     0
102
RTVSPropertyOp62
 70
     0
  0
XRECORD
  5
52A8
102
{ACAD_REACTORS
330
52A7
102
}
330
52A7
100
AcDbXrecord
280
     1
102
RTVSPost2010Prop28
280
     0
102
RTVSPost2010PropOp28
 70
     1
102
RTVSPost2010Prop29
280
     1
102
RTVSPost2010PropOp29
 70
     1
102
RTVSPost2010Prop30
280
     1
102
RTVSPost2010PropOp30
 70
     1
102
RTVSPost2010Prop31
280
     0
102
RTVSPost2010PropOp31
 70
     1
102
RTVSPost2010Prop32
280
     0
102
RTVSPost2010PropOp32
 70
     1
102
RTVSPost2010Prop33
280
     0
102
RTVSPost2010PropOp33
 70
     1
102
RTVSPost2010Prop34
280
     0
102
RTVSPost2010PropOp34
 70
     1
102
RTVSPost2010Prop35
280
     0
102
RTVSPost2010PropOp35
 70
     1
102
RTVSPost2010Prop36
280
     0
102
RTVSPost2010PropOp36
 70
     1
102
RTVSPost2010Prop37
 90
       50
102
RTVSPost2010PropOp37
 70
     1
102
RTVSPost2010Prop38
140
0.0
102
RTVSPost2010PropOp38
 70
     1
102
RTVSPost2010Prop39
140
1.0
102
RTVSPost2010PropOp39
 70
     1
102
RTVSPost2010Prop40
 90
        0
102
RTVSPost2010PropOp40
 70
     1
102
RTVSPost2010Prop41ColorIndex
 90
       18
102
RTVSPost2010Prop41ColorRGB
 90
        0
102
RTVSPost2010PropOp41
 70
     1
102
RTVSPost2010Prop42
 90
       50
102
RTVSPost2010PropOp42
 70
     1
102
RTVSPost2010Prop43
 90
        3
102
RTVSPost2010PropOp43
 70
     1
102
RTVSPost2010Prop44ColorIndex
 90
        5
102
RTVSPost2010Prop44ColorRGB
 90
      255
102
RTVSPost2010PropOp44
 70
     1
102
RTVSPost2010Prop45
280
     0
102
RTVSPost2010PropOp45
 70
     1
102
RTVSPost2010Prop46
 90
       50
102
RTVSPost2010PropOp46
 70
     1
102
RTVSPost2010Prop47
 90
       50
102
RTVSPost2010PropOp47
 70
     1
102
RTVSPost2010Prop48
 90
       50
102
RTVSPost2010PropOp48
 70
     1
102
RTVSPost2010Prop49
280
     0
102
RTVSPost2010PropOp49
 70
     1
102
RTVSPost2010Prop50
 90
       50
102
RTVSPost2010PropOp50
 70
     1
102
RTVSPost2010Prop51ColorIndex
 90
      256
102
RTVSPost2010Prop51ColorRGB
 90
-16777216
102
RTVSPost2010PropOp51
 70
     0
102
RTVSPost2010Prop52
140
1.0
102
RTVSPost2010PropOp52
 70
     0
102
RTVSPost2010Prop53
 90
        2
102
RTVSPost2010PropOp53
 70
     1
102
RTVSPost2010Prop54
  1
strokes_ogs.tif
102
RTVSPost2010PropOp54
 70
     1
102
RTVSPost2010Prop55
280
     0
102
RTVSPost2010PropOp55
 70
     1
102
RTVSPost2010Prop56
140
1.0
102
RTVSPost2010PropOp56
 70
     1
102
RTVSPost2010Prop57
140
1.0
102
RTVSPost2010PropOp57
 70
     1
102
RTVSPropertyOp0
 70
     1
102
RTVSPropertyOp1
 70
     1
102
RTVSPropertyOp2
 70
     1
102
RTVSPropertyOp3
 70
     1
102
RTVSPropertyOp4
 70
     1
102
RTVSPropertyOp5
 70
     1
102
RTVSPropertyOp6
 70
     1
102
RTVSPropertyOp7
 70
     1
102
RTVSPropertyOp8
 70
     1
102
RTVSPropertyOp9
 70
     1
102
RTVSPropertyOp10
 70
     1
102
RTVSPropertyOp11
 70
     1
102
RTVSPropertyOp12
 70
     1
102
RTVSPropertyOp13
 70
     1
102
RTVSPropertyOp14
 70
     1
102
RTVSPropertyOp15
 70
     1
102
RTVSPropertyOp16
 70
     1
102
RTVSPropertyOp17
 70
     1
102
RTVSPropertyOp18
 70
     1
102
RTVSPropertyOp19
 70
     1
102
RTVSPropertyOp20
 70
     1
102
RTVSPropertyOp21
 70
     1
102
RTVSPropertyOp22
 70
     1
102
RTVSPropertyOp23
 70
     1
102
RTVSPropertyOp24
 70
     1
102
RTVSPropertyOp25
 70
     1
102
RTVSPropertyOp26
 70
     1
102
RTVSPropertyOp27
 70
     1
102
RTVSPropertyOp28
 70
     1
102
RTVSPropertyOp29
 70
     1
102
RTVSPropertyOp30
 70
     1
102
RTVSPropertyOp31
 70
     1
102
RTVSPropertyOp32
 70
     1
102
RTVSPropertyOp33
 70
     1
102
RTVSPropertyOp34
 70
     1
102
RTVSPropertyOp35
 70
     1
102
RTVSPropertyOp36
 70
     1
102
RTVSPropertyOp37
 70
     1
102
RTVSPropertyOp38
 70
     1
102
RTVSPropertyOp39
 70
     1
102
RTVSPropertyOp40
 70
     1
102
RTVSPropertyOp41
 70
     1
102
RTVSPropertyOp42
 70
     1
102
RTVSPropertyOp43
 70
     1
102
RTVSPropertyOp44
 70
     1
102
RTVSPropertyOp45
 70
     1
102
RTVSPropertyOp46
 70
     1
102
RTVSPropertyOp47
 70
     1
102
RTVSPropertyOp48
 70
     1
102
RTVSPropertyOp49
 70
     1
102
RTVSPropertyOp50
 70
     1
102
RTVSPropertyOp51
 70
     0
102
RTVSPropertyOp52
 70
     0
102
RTVSPropertyOp53
 70
     1
102
RTVSPropertyOp54
 70
     1
102
RTVSPropertyOp55
 70
     1
102
RTVSPropertyOp56
 70
     1
102
RTVSPropertyOp57
 70
     1
102
RTVSPropertyOp58
 70
     1
102
RTVSPropertyOp59
 70
     1
102
RTVSPropertyOp60
 70
     1
102
RTVSPropertyOp61
 70
     1
102
RTVSPropertyOp62
 70
     1
  0
XRECORD
  5
52BA
102
{ACAD_REACTORS
330
52B9
102
}
330
52B9
100
AcDbXrecord
280
     1
102
RTVSPost2010Prop28
280
     0
102
RTVSPost2010PropOp28
 70
     1
102
RTVSPost2010Prop29
280
     1
102
RTVSPost2010PropOp29
 70
     1
102
RTVSPost2010Prop30
280
     1
102
RTVSPost2010PropOp30
 70
     1
102
RTVSPost2010Prop31
280
     0
102
RTVSPost2010PropOp31
 70
     1
102
RTVSPost2010Prop32
280
     0
102
RTVSPost2010PropOp32
 70
     1
102
RTVSPost2010Prop33
280
     0
102
RTVSPost2010PropOp33
 70
     1
102
RTVSPost2010Prop34
280
     0
102
RTVSPost2010PropOp34
 70
     1
102
RTVSPost2010Prop35
280
     0
102
RTVSPost2010PropOp35
 70
     1
102
RTVSPost2010Prop36
280
     0
102
RTVSPost2010PropOp36
 70
     1
102
RTVSPost2010Prop37
 90
       50
102
RTVSPost2010PropOp37
 70
     0
102
RTVSPost2010Prop38
140
0.0
102
RTVSPost2010PropOp38
 70
     0
102
RTVSPost2010Prop39
140
1.0
102
RTVSPost2010PropOp39
 70
     0
102
RTVSPost2010Prop40
 90
        0
102
RTVSPost2010PropOp40
 70
     0
102
RTVSPost2010Prop41ColorIndex
 90
       18
102
RTVSPost2010Prop41ColorRGB
 90
        0
102
RTVSPost2010PropOp41
 70
     0
102
RTVSPost2010Prop42
 90
       50
102
RTVSPost2010PropOp42
 70
     0
102
RTVSPost2010Prop43
 90
        3
102
RTVSPost2010PropOp43
 70
     0
102
RTVSPost2010Prop44ColorIndex
 90
        5
102
RTVSPost2010Prop44ColorRGB
 90
      255
102
RTVSPost2010PropOp44
 70
     0
102
RTVSPost2010Prop45
280
     0
102
RTVSPost2010PropOp45
 70
     1
102
RTVSPost2010Prop46
 90
       50
102
RTVSPost2010PropOp46
 70
     0
102
RTVSPost2010Prop47
 90
       50
102
RTVSPost2010PropOp47
 70
     0
102
RTVSPost2010Prop48
 90
       50
102
RTVSPost2010PropOp48
 70
     0
102
RTVSPost2010Prop49
280
     0
102
RTVSPost2010PropOp49
 70
     1
102
RTVSPost2010Prop50
 90
       50
102
RTVSPost2010PropOp50
 70
     0
102
RTVSPost2010Prop51ColorIndex
 90
      256
102
RTVSPost2010Prop51ColorRGB
 90
-16777216
102
RTVSPost2010PropOp51
 70
     0
102
RTVSPost2010Prop52
140
1.0
102
RTVSPost2010PropOp52
 70
     0
102
RTVSPost2010Prop53
 90
        2
102
RTVSPost2010PropOp53
 70
     0
102
RTVSPost2010Prop54
  1
strokes_ogs.tif
102
RTVSPost2010PropOp54
 70
     0
102
RTVSPost2010Prop55
280
     0
102
RTVSPost2010PropOp55
 70
     1
102
RTVSPost2010Prop56
140
1.0
102
RTVSPost2010PropOp56
 70
     0
102
RTVSPost2010Prop57
140
1.0
102
RTVSPost2010PropOp57
 70
     0
102
RTVSPropertyOp0
 70
     0
102
RTVSPropertyOp1
 70
     0
102
RTVSPropertyOp2
 70
     0
102
RTVSPropertyOp3
 70
     0
102
RTVSPropertyOp4
 70
     0
102
RTVSPropertyOp5
 70
     0
102
RTVSPropertyOp6
 70
     0
102
RTVSPropertyOp7
 70
     0
102
RTVSPropertyOp8
 70
     0
102
RTVSPropertyOp9
 70
     0
102
RTVSPropertyOp10
 70
     0
102
RTVSPropertyOp11
 70
     0
102
RTVSPropertyOp12
 70
     0
102
RTVSPropertyOp13
 70
     0
102
RTVSPropertyOp14
 70
     2
102
RTVSPropertyOp15
 70
     0
102
RTVSPropertyOp16
 70
     0
102
RTVSPropertyOp17
 70
     0
102
RTVSPropertyOp18
 70
     0
102
RTVSPropertyOp19
 70
     0
102
RTVSPropertyOp20
 70
     0
102
RTVSPropertyOp21
 70
     0
102
RTVSPropertyOp22
 70
     0
102
RTVSPropertyOp23
 70
     0
102
RTVSPropertyOp24
 70
     0
102
RTVSPropertyOp25
 70
     0
102
RTVSPropertyOp26
 70
     0
102
RTVSPropertyOp27
 70
     0
102
RTVSPropertyOp28
 70
     1
102
RTVSPropertyOp29
 70
     1
102
RTVSPropertyOp30
 70
     1
102
RTVSPropertyOp31
 70
     1
102
RTVSPropertyOp32
 70
     1
102
RTVSPropertyOp33
 70
     1
102
RTVSPropertyOp34
 70
     1
102
RTVSPropertyOp35
 70
     1
102
RTVSPropertyOp36
 70
     1
102
RTVSPropertyOp37
 70
     0
102
RTVSPropertyOp38
 70
     0
102
RTVSPropertyOp39
 70
     0
102
RTVSPropertyOp40
 70
     0
102
RTVSPropertyOp41
 70
     0
102
RTVSPropertyOp42
 70
     0
102
RTVSPropertyOp43
 70
     0
102
RTVSPropertyOp44
 70
     0
102
RTVSPropertyOp45
 70
     1
102
RTVSPropertyOp46
 70
     0
102
RTVSPropertyOp47
 70
     0
102
RTVSPropertyOp48
 70
     0
102
RTVSPropertyOp49
 70
     1
102
RTVSPropertyOp50
 70
     0
102
RTVSPropertyOp51
 70
     0
102
RTVSPropertyOp52
 70
     0
102
RTVSPropertyOp53
 70
     0
102
RTVSPropertyOp54
 70
     0
102
RTVSPropertyOp55
 70
     1
102
RTVSPropertyOp56
 70
     0
102
RTVSPropertyOp57
 70
     0
102
RTVSPropertyOp58
 70
     0
102
RTVSPropertyOp59
 70
     0
102
RTVSPropertyOp60
 70
     0
102
RTVSPropertyOp61
 70
     0
102
RTVSPropertyOp62
 70
     0
  0
XRECORD
  5
52A0
102
{ACAD_REACTORS
330
529F
102
}
330
529F
100
AcDbXrecord
280
     1
102
RTVSPost2010Prop28
280
     0
102
RTVSPost2010PropOp28
 70
     1
102
RTVSPost2010Prop29
280
     1
102
RTVSPost2010PropOp29
 70
     1
102
RTVSPost2010Prop30
280
     1
102
RTVSPost2010PropOp30
 70
     1
102
RTVSPost2010Prop31
280
     0
102
RTVSPost2010PropOp31
 70
     1
102
RTVSPost2010Prop32
280
     0
102
RTVSPost2010PropOp32
 70
     1
102
RTVSPost2010Prop33
280
     0
102
RTVSPost2010PropOp33
 70
     1
102
RTVSPost2010Prop34
280
     0
102
RTVSPost2010PropOp34
 70
     1
102
RTVSPost2010Prop35
280
     0
102
RTVSPost2010PropOp35
 70
     1
102
RTVSPost2010Prop36
280
     0
102
RTVSPost2010PropOp36
 70
     1
102
RTVSPost2010Prop37
 90
       50
102
RTVSPost2010PropOp37
 70
     1
102
RTVSPost2010Prop38
140
0.0
102
RTVSPost2010PropOp38
 70
     1
102
RTVSPost2010Prop39
140
1.0
102
RTVSPost2010PropOp39
 70
     1
102
RTVSPost2010Prop40
 90
        0
102
RTVSPost2010PropOp40
 70
     1
102
RTVSPost2010Prop41ColorIndex
 90
       18
102
RTVSPost2010Prop41ColorRGB
 90
        0
102
RTVSPost2010PropOp41
 70
     1
102
RTVSPost2010Prop42
 90
       50
102
RTVSPost2010PropOp42
 70
     1
102
RTVSPost2010Prop43
 90
        3
102
RTVSPost2010PropOp43
 70
     1
102
RTVSPost2010Prop44ColorIndex
 90
        5
102
RTVSPost2010Prop44ColorRGB
 90
      255
102
RTVSPost2010PropOp44
 70
     1
102
RTVSPost2010Prop45
280
     0
102
RTVSPost2010PropOp45
 70
     1
102
RTVSPost2010Prop46
 90
       50
102
RTVSPost2010PropOp46
 70
     1
102
RTVSPost2010Prop47
 90
       50
102
RTVSPost2010PropOp47
 70
     1
102
RTVSPost2010Prop48
 90
       50
102
RTVSPost2010PropOp48
 70
     1
102
RTVSPost2010Prop49
280
     0
102
RTVSPost2010PropOp49
 70
     1
102
RTVSPost2010Prop50
 90
       50
102
RTVSPost2010PropOp50
 70
     1
102
RTVSPost2010Prop51ColorIndex
 90
      256
102
RTVSPost2010Prop51ColorRGB
 90
-16777216
102
RTVSPost2010PropOp51
 70
     0
102
RTVSPost2010Prop52
140
1.0
102
RTVSPost2010PropOp52
 70
     0
102
RTVSPost2010Prop53
 90
        2
102
RTVSPost2010PropOp53
 70
     1
102
RTVSPost2010Prop54
  1
strokes_ogs.tif
102
RTVSPost2010PropOp54
 70
     1
102
RTVSPost2010Prop55
280
     0
102
RTVSPost2010PropOp55
 70
     1
102
RTVSPost2010Prop56
140
1.0
102
RTVSPost2010PropOp56
 70
     1
102
RTVSPost2010Prop57
140
1.0
102
RTVSPost2010PropOp57
 70
     1
102
RTVSPropertyOp0
 70
     1
102
RTVSPropertyOp1
 70
     1
102
RTVSPropertyOp2
 70
     1
102
RTVSPropertyOp3
 70
     1
102
RTVSPropertyOp4
 70
     1
102
RTVSPropertyOp5
 70
     1
102
RTVSPropertyOp6
 70
     1
102
RTVSPropertyOp7
 70
     1
102
RTVSPropertyOp8
 70
     1
102
RTVSPropertyOp9
 70
     1
102
RTVSPropertyOp10
 70
     1
102
RTVSPropertyOp11
 70
     1
102
RTVSPropertyOp12
 70
     1
102
RTVSPropertyOp13
 70
     1
102
RTVSPropertyOp14
 70
     1
102
RTVSPropertyOp15
 70
     1
102
RTVSPropertyOp16
 70
     1
102
RTVSPropertyOp17
 70
     1
102
RTVSPropertyOp18
 70
     1
102
RTVSPropertyOp19
 70
     1
102
RTVSPropertyOp20
 70
     1
102
RTVSPropertyOp21
 70
     1
102
RTVSPropertyOp22
 70
     1
102
RTVSPropertyOp23
 70
     1
102
RTVSPropertyOp24
 70
     1
102
RTVSPropertyOp25
 70
     1
102
RTVSPropertyOp26
 70
     1
102
RTVSPropertyOp27
 70
     1
102
RTVSPropertyOp28
 70
     1
102
RTVSPropertyOp29
 70
     1
102
RTVSPropertyOp30
 70
     1
102
RTVSPropertyOp31
 70
     1
102
RTVSPropertyOp32
 70
     1
102
RTVSPropertyOp33
 70
     1
102
RTVSPropertyOp34
 70
     1
102
RTVSPropertyOp35
 70
     1
102
RTVSPropertyOp36
 70
     1
102
RTVSPropertyOp37
 70
     1
102
RTVSPropertyOp38
 70
     1
102
RTVSPropertyOp39
 70
     1
102
RTVSPropertyOp40
 70
     1
102
RTVSPropertyOp41
 70
     1
102
RTVSPropertyOp42
 70
     1
102
RTVSPropertyOp43
 70
     1
102
RTVSPropertyOp44
 70
     1
102
RTVSPropertyOp45
 70
     1
102
RTVSPropertyOp46
 70
     1
102
RTVSPropertyOp47
 70
     1
102
RTVSPropertyOp48
 70
     1
102
RTVSPropertyOp49
 70
     1
102
RTVSPropertyOp50
 70
     1
102
RTVSPropertyOp51
 70
     0
102
RTVSPropertyOp52
 70
     0
102
RTVSPropertyOp53
 70
     1
102
RTVSPropertyOp54
 70
     1
102
RTVSPropertyOp55
 70
     1
102
RTVSPropertyOp56
 70
     1
102
RTVSPropertyOp57
 70
     1
102
RTVSPropertyOp58
 70
     1
102
RTVSPropertyOp59
 70
     1
102
RTVSPropertyOp60
 70
     1
102
RTVSPropertyOp61
 70
     1
102
RTVSPropertyOp62
 70
     1
  0
XRECORD
  5
52B6
102
{ACAD_REACTORS
330
52B5
102
}
330
52B5
100
AcDbXrecord
280
     1
102
RTVSPost2010Prop28
280
     0
102
RTVSPost2010PropOp28
 70
     1
102
RTVSPost2010Prop29
280
     1
102
RTVSPost2010PropOp29
 70
     1
102
RTVSPost2010Prop30
280
     1
102
RTVSPost2010PropOp30
 70
     1
102
RTVSPost2010Prop31
280
     0
102
RTVSPost2010PropOp31
 70
     1
102
RTVSPost2010Prop32
280
     0
102
RTVSPost2010PropOp32
 70
     1
102
RTVSPost2010Prop33
280
     0
102
RTVSPost2010PropOp33
 70
     1
102
RTVSPost2010Prop34
280
     0
102
RTVSPost2010PropOp34
 70
     1
102
RTVSPost2010Prop35
280
     0
102
RTVSPost2010PropOp35
 70
     1
102
RTVSPost2010Prop36
280
     0
102
RTVSPost2010PropOp36
 70
     1
102
RTVSPost2010Prop37
 90
       50
102
RTVSPost2010PropOp37
 70
     1
102
RTVSPost2010Prop38
140
0.0
102
RTVSPost2010PropOp38
 70
     1
102
RTVSPost2010Prop39
140
1.0
102
RTVSPost2010PropOp39
 70
     1
102
RTVSPost2010Prop40
 90
        0
102
RTVSPost2010PropOp40
 70
     1
102
RTVSPost2010Prop41ColorIndex
 90
       18
102
RTVSPost2010Prop41ColorRGB
 90
        0
102
RTVSPost2010PropOp41
 70
     1
102
RTVSPost2010Prop42
 90
       50
102
RTVSPost2010PropOp42
 70
     1
102
RTVSPost2010Prop43
 90
        3
102
RTVSPost2010PropOp43
 70
     1
102
RTVSPost2010Prop44ColorIndex
 90
        5
102
RTVSPost2010Prop44ColorRGB
 90
      255
102
RTVSPost2010PropOp44
 70
     1
102
RTVSPost2010Prop45
280
     0
102
RTVSPost2010PropOp45
 70
     1
102
RTVSPost2010Prop46
 90
       50
102
RTVSPost2010PropOp46
 70
     1
102
RTVSPost2010Prop47
 90
       50
102
RTVSPost2010PropOp47
 70
     1
102
RTVSPost2010Prop48
 90
       50
102
RTVSPost2010PropOp48
 70
     1
102
RTVSPost2010Prop49
280
     0
102
RTVSPost2010PropOp49
 70
     1
102
RTVSPost2010Prop50
 90
       50
102
RTVSPost2010PropOp50
 70
     1
102
RTVSPost2010Prop51ColorIndex
 90
      256
102
RTVSPost2010Prop51ColorRGB
 90
-16777216
102
RTVSPost2010PropOp51
 70
     0
102
RTVSPost2010Prop52
140
1.0
102
RTVSPost2010PropOp52
 70
     0
102
RTVSPost2010Prop53
 90
        2
102
RTVSPost2010PropOp53
 70
     1
102
RTVSPost2010Prop54
  1
strokes_ogs.tif
102
RTVSPost2010PropOp54
 70
     1
102
RTVSPost2010Prop55
280
     0
102
RTVSPost2010PropOp55
 70
     1
102
RTVSPost2010Prop56
140
1.0
102
RTVSPost2010PropOp56
 70
     1
102
RTVSPost2010Prop57
140
1.0
102
RTVSPost2010PropOp57
 70
     1
102
RTVSPropertyOp0
 70
     1
102
RTVSPropertyOp1
 70
     1
102
RTVSPropertyOp2
 70
     1
102
RTVSPropertyOp3
 70
     1
102
RTVSPropertyOp4
 70
     1
102
RTVSPropertyOp5
 70
     1
102
RTVSPropertyOp6
 70
     1
102
RTVSPropertyOp7
 70
     1
102
RTVSPropertyOp8
 70
     1
102
RTVSPropertyOp9
 70
     1
102
RTVSPropertyOp10
 70
     1
102
RTVSPropertyOp11
 70
     1
102
RTVSPropertyOp12
 70
     1
102
RTVSPropertyOp13
 70
     1
102
RTVSPropertyOp14
 70
     1
102
RTVSPropertyOp15
 70
     1
102
RTVSPropertyOp16
 70
     1
102
RTVSPropertyOp17
 70
     1
102
RTVSPropertyOp18
 70
     1
102
RTVSPropertyOp19
 70
     1
102
RTVSPropertyOp20
 70
     1
102
RTVSPropertyOp21
 70
     1
102
RTVSPropertyOp22
 70
     1
102
RTVSPropertyOp23
 70
     1
102
RTVSPropertyOp24
 70
     1
102
RTVSPropertyOp25
 70
     1
102
RTVSPropertyOp26
 70
     1
102
RTVSPropertyOp27
 70
     1
102
RTVSPropertyOp28
 70
     1
102
RTVSPropertyOp29
 70
     1
102
RTVSPropertyOp30
 70
     1
102
RTVSPropertyOp31
 70
     1
102
RTVSPropertyOp32
 70
     1
102
RTVSPropertyOp33
 70
     1
102
RTVSPropertyOp34
 70
     1
102
RTVSPropertyOp35
 70
     1
102
RTVSPropertyOp36
 70
     1
102
RTVSPropertyOp37
 70
     1
102
RTVSPropertyOp38
 70
     1
102
RTVSPropertyOp39
 70
     1
102
RTVSPropertyOp40
 70
     1
102
RTVSPropertyOp41
 70
     1
102
RTVSPropertyOp42
 70
     1
102
RTVSPropertyOp43
 70
     1
102
RTVSPropertyOp44
 70
     1
102
RTVSPropertyOp45
 70
     1
102
RTVSPropertyOp46
 70
     1
102
RTVSPropertyOp47
 70
     1
102
RTVSPropertyOp48
 70
     1
102
RTVSPropertyOp49
 70
     1
102
RTVSPropertyOp50
 70
     1
102
RTVSPropertyOp51
 70
     0
102
RTVSPropertyOp52
 70
     0
102
RTVSPropertyOp53
 70
     1
102
RTVSPropertyOp54
 70
     1
102
RTVSPropertyOp55
 70
     1
102
RTVSPropertyOp56
 70
     1
102
RTVSPropertyOp57
 70
     1
102
RTVSPropertyOp58
 70
     1
102
RTVSPropertyOp59
 70
     1
102
RTVSPropertyOp60
 70
     1
102
RTVSPropertyOp61
 70
     1
102
RTVSPropertyOp62
 70
     1
  0
XRECORD
  5
52B4
102
{ACAD_REACTORS
330
52B3
102
}
330
52B3
100
AcDbXrecord
280
     1
102
RTVSPost2010Prop28
280
     0
102
RTVSPost2010PropOp28
 70
     1
102
RTVSPost2010Prop29
280
     1
102
RTVSPost2010PropOp29
 70
     1
102
RTVSPost2010Prop30
280
     1
102
RTVSPost2010PropOp30
 70
     1
102
RTVSPost2010Prop31
280
     0
102
RTVSPost2010PropOp31
 70
     1
102
RTVSPost2010Prop32
280
     0
102
RTVSPost2010PropOp32
 70
     1
102
RTVSPost2010Prop33
280
     0
102
RTVSPost2010PropOp33
 70
     1
102
RTVSPost2010Prop34
280
     0
102
RTVSPost2010PropOp34
 70
     1
102
RTVSPost2010Prop35
280
     0
102
RTVSPost2010PropOp35
 70
     1
102
RTVSPost2010Prop36
280
     0
102
RTVSPost2010PropOp36
 70
     1
102
RTVSPost2010Prop37
 90
       50
102
RTVSPost2010PropOp37
 70
     1
102
RTVSPost2010Prop38
140
0.0
102
RTVSPost2010PropOp38
 70
     1
102
RTVSPost2010Prop39
140
1.0
102
RTVSPost2010PropOp39
 70
     1
102
RTVSPost2010Prop40
 90
        0
102
RTVSPost2010PropOp40
 70
     1
102
RTVSPost2010Prop41ColorIndex
 90
       18
102
RTVSPost2010Prop41ColorRGB
 90
        0
102
RTVSPost2010PropOp41
 70
     1
102
RTVSPost2010Prop42
 90
       50
102
RTVSPost2010PropOp42
 70
     1
102
RTVSPost2010Prop43
 90
        3
102
RTVSPost2010PropOp43
 70
     1
102
RTVSPost2010Prop44ColorIndex
 90
        5
102
RTVSPost2010Prop44ColorRGB
 90
      255
102
RTVSPost2010PropOp44
 70
     1
102
RTVSPost2010Prop45
280
     0
102
RTVSPost2010PropOp45
 70
     1
102
RTVSPost2010Prop46
 90
       50
102
RTVSPost2010PropOp46
 70
     1
102
RTVSPost2010Prop47
 90
       50
102
RTVSPost2010PropOp47
 70
     1
102
RTVSPost2010Prop48
 90
       50
102
RTVSPost2010PropOp48
 70
     1
102
RTVSPost2010Prop49
280
     0
102
RTVSPost2010PropOp49
 70
     1
102
RTVSPost2010Prop50
 90
       50
102
RTVSPost2010PropOp50
 70
     1
102
RTVSPost2010Prop51ColorIndex
 90
      256
102
RTVSPost2010Prop51ColorRGB
 90
-16777216
102
RTVSPost2010PropOp51
 70
     0
102
RTVSPost2010Prop52
140
1.0
102
RTVSPost2010PropOp52
 70
     0
102
RTVSPost2010Prop53
 90
        2
102
RTVSPost2010PropOp53
 70
     1
102
RTVSPost2010Prop54
  1
strokes_ogs.tif
102
RTVSPost2010PropOp54
 70
     1
102
RTVSPost2010Prop55
280
     0
102
RTVSPost2010PropOp55
 70
     1
102
RTVSPost2010Prop56
140
1.0
102
RTVSPost2010PropOp56
 70
     1
102
RTVSPost2010Prop57
140
1.0
102
RTVSPost2010PropOp57
 70
     1
102
RTVSPropertyOp0
 70
     1
102
RTVSPropertyOp1
 70
     1
102
RTVSPropertyOp2
 70
     1
102
RTVSPropertyOp3
 70
     1
102
RTVSPropertyOp4
 70
     1
102
RTVSPropertyOp5
 70
     1
102
RTVSPropertyOp6
 70
     1
102
RTVSPropertyOp7
 70
     1
102
RTVSPropertyOp8
 70
     1
102
RTVSPropertyOp9
 70
     1
102
RTVSPropertyOp10
 70
     1
102
RTVSPropertyOp11
 70
     1
102
RTVSPropertyOp12
 70
     1
102
RTVSPropertyOp13
 70
     1
102
RTVSPropertyOp14
 70
     1
102
RTVSPropertyOp15
 70
     1
102
RTVSPropertyOp16
 70
     1
102
RTVSPropertyOp17
 70
     1
102
RTVSPropertyOp18
 70
     1
102
RTVSPropertyOp19
 70
     1
102
RTVSPropertyOp20
 70
     1
102
RTVSPropertyOp21
 70
     1
102
RTVSPropertyOp22
 70
     1
102
RTVSPropertyOp23
 70
     1
102
RTVSPropertyOp24
 70
     1
102
RTVSPropertyOp25
 70
     1
102
RTVSPropertyOp26
 70
     1
102
RTVSPropertyOp27
 70
     1
102
RTVSPropertyOp28
 70
     1
102
RTVSPropertyOp29
 70
     1
102
RTVSPropertyOp30
 70
     1
102
RTVSPropertyOp31
 70
     1
102
RTVSPropertyOp32
 70
     1
102
RTVSPropertyOp33
 70
     1
102
RTVSPropertyOp34
 70
     1
102
RTVSPropertyOp35
 70
     1
102
RTVSPropertyOp36
 70
     1
102
RTVSPropertyOp37
 70
     1
102
RTVSPropertyOp38
 70
     1
102
RTVSPropertyOp39
 70
     1
102
RTVSPropertyOp40
 70
     1
102
RTVSPropertyOp41
 70
     1
102
RTVSPropertyOp42
 70
     1
102
RTVSPropertyOp43
 70
     1
102
RTVSPropertyOp44
 70
     1
102
RTVSPropertyOp45
 70
     1
102
RTVSPropertyOp46
 70
     1
102
RTVSPropertyOp47
 70
     1
102
RTVSPropertyOp48
 70
     1
102
RTVSPropertyOp49
 70
     1
102
RTVSPropertyOp50
 70
     1
102
RTVSPropertyOp51
 70
     0
102
RTVSPropertyOp52
 70
     0
102
RTVSPropertyOp53
 70
     1
102
RTVSPropertyOp54
 70
     1
102
RTVSPropertyOp55
 70
     1
102
RTVSPropertyOp56
 70
     1
102
RTVSPropertyOp57
 70
     1
102
RTVSPropertyOp58
 70
     1
102
RTVSPropertyOp59
 70
     1
102
RTVSPropertyOp60
 70
     1
102
RTVSPropertyOp61
 70
     1
102
RTVSPropertyOp62
 70
     1
  0
XRECORD
  5
52AE
102
{ACAD_REACTORS
330
52AD
102
}
330
52AD
100
AcDbXrecord
280
     1
102
RTVSPost2010Prop28
280
     0
102
RTVSPost2010PropOp28
 70
     1
102
RTVSPost2010Prop29
280
     1
102
RTVSPost2010PropOp29
 70
     1
102
RTVSPost2010Prop30
280
     1
102
RTVSPost2010PropOp30
 70
     1
102
RTVSPost2010Prop31
280
     0
102
RTVSPost2010PropOp31
 70
     1
102
RTVSPost2010Prop32
280
     0
102
RTVSPost2010PropOp32
 70
     1
102
RTVSPost2010Prop33
280
     0
102
RTVSPost2010PropOp33
 70
     1
102
RTVSPost2010Prop34
280
     0
102
RTVSPost2010PropOp34
 70
     1
102
RTVSPost2010Prop35
280
     0
102
RTVSPost2010PropOp35
 70
     1
102
RTVSPost2010Prop36
280
     0
102
RTVSPost2010PropOp36
 70
     1
102
RTVSPost2010Prop37
 90
       50
102
RTVSPost2010PropOp37
 70
     1
102
RTVSPost2010Prop38
140
0.0
102
RTVSPost2010PropOp38
 70
     1
102
RTVSPost2010Prop39
140
1.0
102
RTVSPost2010PropOp39
 70
     1
102
RTVSPost2010Prop40
 90
        0
102
RTVSPost2010PropOp40
 70
     1
102
RTVSPost2010Prop41ColorIndex
 90
       18
102
RTVSPost2010Prop41ColorRGB
 90
        0
102
RTVSPost2010PropOp41
 70
     1
102
RTVSPost2010Prop42
 90
       50
102
RTVSPost2010PropOp42
 70
     1
102
RTVSPost2010Prop43
 90
        3
102
RTVSPost2010PropOp43
 70
     1
102
RTVSPost2010Prop44ColorIndex
 90
        5
102
RTVSPost2010Prop44ColorRGB
 90
      255
102
RTVSPost2010PropOp44
 70
     1
102
RTVSPost2010Prop45
280
     0
102
RTVSPost2010PropOp45
 70
     1
102
RTVSPost2010Prop46
 90
       50
102
RTVSPost2010PropOp46
 70
     1
102
RTVSPost2010Prop47
 90
       50
102
RTVSPost2010PropOp47
 70
     1
102
RTVSPost2010Prop48
 90
       50
102
RTVSPost2010PropOp48
 70
     1
102
RTVSPost2010Prop49
280
     0
102
RTVSPost2010PropOp49
 70
     1
102
RTVSPost2010Prop50
 90
       50
102
RTVSPost2010PropOp50
 70
     1
102
RTVSPost2010Prop51ColorIndex
 90
      256
102
RTVSPost2010Prop51ColorRGB
 90
-16777216
102
RTVSPost2010PropOp51
 70
     0
102
RTVSPost2010Prop52
140
1.0
102
RTVSPost2010PropOp52
 70
     0
102
RTVSPost2010Prop53
 90
        2
102
RTVSPost2010PropOp53
 70
     1
102
RTVSPost2010Prop54
  1
strokes_ogs.tif
102
RTVSPost2010PropOp54
 70
     1
102
RTVSPost2010Prop55
280
     0
102
RTVSPost2010PropOp55
 70
     1
102
RTVSPost2010Prop56
140
1.0
102
RTVSPost2010PropOp56
 70
     1
102
RTVSPost2010Prop57
140
1.0
102
RTVSPost2010PropOp57
 70
     1
102
RTVSPropertyOp0
 70
     1
102
RTVSPropertyOp1
 70
     1
102
RTVSPropertyOp2
 70
     1
102
RTVSPropertyOp3
 70
     1
102
RTVSPropertyOp4
 70
     1
102
RTVSPropertyOp5
 70
     1
102
RTVSPropertyOp6
 70
     1
102
RTVSPropertyOp7
 70
     1
102
RTVSPropertyOp8
 70
     1
102
RTVSPropertyOp9
 70
     1
102
RTVSPropertyOp10
 70
     1
102
RTVSPropertyOp11
 70
     1
102
RTVSPropertyOp12
 70
     1
102
RTVSPropertyOp13
 70
     1
102
RTVSPropertyOp14
 70
     1
102
RTVSPropertyOp15
 70
     1
102
RTVSPropertyOp16
 70
     1
102
RTVSPropertyOp17
 70
     1
102
RTVSPropertyOp18
 70
     1
102
RTVSPropertyOp19
 70
     1
102
RTVSPropertyOp20
 70
     1
102
RTVSPropertyOp21
 70
     1
102
RTVSPropertyOp22
 70
     1
102
RTVSPropertyOp23
 70
     1
102
RTVSPropertyOp24
 70
     1
102
RTVSPropertyOp25
 70
     1
102
RTVSPropertyOp26
 70
     1
102
RTVSPropertyOp27
 70
     1
102
RTVSPropertyOp28
 70
     1
102
RTVSPropertyOp29
 70
     1
102
RTVSPropertyOp30
 70
     1
102
RTVSPropertyOp31
 70
     1
102
RTVSPropertyOp32
 70
     1
102
RTVSPropertyOp33
 70
     1
102
RTVSPropertyOp34
 70
     1
102
RTVSPropertyOp35
 70
     1
102
RTVSPropertyOp36
 70
     1
102
RTVSPropertyOp37
 70
     1
102
RTVSPropertyOp38
 70
     1
102
RTVSPropertyOp39
 70
     1
102
RTVSPropertyOp40
 70
     1
102
RTVSPropertyOp41
 70
     1
102
RTVSPropertyOp42
 70
     1
102
RTVSPropertyOp43
 70
     1
102
RTVSPropertyOp44
 70
     1
102
RTVSPropertyOp45
 70
     1
102
RTVSPropertyOp46
 70
     1
102
RTVSPropertyOp47
 70
     1
102
RTVSPropertyOp48
 70
     1
102
RTVSPropertyOp49
 70
     1
102
RTVSPropertyOp50
 70
     1
102
RTVSPropertyOp51
 70
     0
102
RTVSPropertyOp52
 70
     0
102
RTVSPropertyOp53
 70
     1
102
RTVSPropertyOp54
 70
     1
102
RTVSPropertyOp55
 70
     1
102
RTVSPropertyOp56
 70
     1
102
RTVSPropertyOp57
 70
     1
102
RTVSPropertyOp58
 70
     1
102
RTVSPropertyOp59
 70
     1
102
RTVSPropertyOp60
 70
     1
102
RTVSPropertyOp61
 70
     1
102
RTVSPropertyOp62
 70
     1
  0
XRECORD
  5
52B0
102
{ACAD_REACTORS
330
52AF
102
}
330
52AF
100
AcDbXrecord
280
     1
102
RTVSPost2010Prop28
280
     0
102
RTVSPost2010PropOp28
 70
     1
102
RTVSPost2010Prop29
280
     1
102
RTVSPost2010PropOp29
 70
     1
102
RTVSPost2010Prop30
280
     1
102
RTVSPost2010PropOp30
 70
     1
102
RTVSPost2010Prop31
280
     0
102
RTVSPost2010PropOp31
 70
     1
102
RTVSPost2010Prop32
280
     0
102
RTVSPost2010PropOp32
 70
     1
102
RTVSPost2010Prop33
280
     0
102
RTVSPost2010PropOp33
 70
     1
102
RTVSPost2010Prop34
280
     0
102
RTVSPost2010PropOp34
 70
     1
102
RTVSPost2010Prop35
280
     0
102
RTVSPost2010PropOp35
 70
     1
102
RTVSPost2010Prop36
280
     0
102
RTVSPost2010PropOp36
 70
     1
102
RTVSPost2010Prop37
 90
       50
102
RTVSPost2010PropOp37
 70
     1
102
RTVSPost2010Prop38
140
0.0
102
RTVSPost2010PropOp38
 70
     1
102
RTVSPost2010Prop39
140
1.0
102
RTVSPost2010PropOp39
 70
     1
102
RTVSPost2010Prop40
 90
        0
102
RTVSPost2010PropOp40
 70
     1
102
RTVSPost2010Prop41ColorIndex
 90
       18
102
RTVSPost2010Prop41ColorRGB
 90
        0
102
RTVSPost2010PropOp41
 70
     1
102
RTVSPost2010Prop42
 90
       50
102
RTVSPost2010PropOp42
 70
     1
102
RTVSPost2010Prop43
 90
        3
102
RTVSPost2010PropOp43
 70
     1
102
RTVSPost2010Prop44ColorIndex
 90
        5
102
RTVSPost2010Prop44ColorRGB
 90
      255
102
RTVSPost2010PropOp44
 70
     1
102
RTVSPost2010Prop45
280
     0
102
RTVSPost2010PropOp45
 70
     1
102
RTVSPost2010Prop46
 90
       50
102
RTVSPost2010PropOp46
 70
     1
102
RTVSPost2010Prop47
 90
       50
102
RTVSPost2010PropOp47
 70
     1
102
RTVSPost2010Prop48
 90
       50
102
RTVSPost2010PropOp48
 70
     1
102
RTVSPost2010Prop49
280
     0
102
RTVSPost2010PropOp49
 70
     1
102
RTVSPost2010Prop50
 90
       50
102
RTVSPost2010PropOp50
 70
     1
102
RTVSPost2010Prop51ColorIndex
 90
      256
102
RTVSPost2010Prop51ColorRGB
 90
-16777216
102
RTVSPost2010PropOp51
 70
     0
102
RTVSPost2010Prop52
140
1.0
102
RTVSPost2010PropOp52
 70
     0
102
RTVSPost2010Prop53
 90
        2
102
RTVSPost2010PropOp53
 70
     1
102
RTVSPost2010Prop54
  1
strokes_ogs.tif
102
RTVSPost2010PropOp54
 70
     1
102
RTVSPost2010Prop55
280
     0
102
RTVSPost2010PropOp55
 70
     1
102
RTVSPost2010Prop56
140
1.0
102
RTVSPost2010PropOp56
 70
     1
102
RTVSPost2010Prop57
140
1.0
102
RTVSPost2010PropOp57
 70
     1
102
RTVSPropertyOp0
 70
     1
102
RTVSPropertyOp1
 70
     1
102
RTVSPropertyOp2
 70
     1
102
RTVSPropertyOp3
 70
     1
102
RTVSPropertyOp4
 70
     1
102
RTVSPropertyOp5
 70
     1
102
RTVSPropertyOp6
 70
     1
102
RTVSPropertyOp7
 70
     1
102
RTVSPropertyOp8
 70
     1
102
RTVSPropertyOp9
 70
     1
102
RTVSPropertyOp10
 70
     1
102
RTVSPropertyOp11
 70
     1
102
RTVSPropertyOp12
 70
     1
102
RTVSPropertyOp13
 70
     1
102
RTVSPropertyOp14
 70
     1
102
RTVSPropertyOp15
 70
     1
102
RTVSPropertyOp16
 70
     1
102
RTVSPropertyOp17
 70
     1
102
RTVSPropertyOp18
 70
     1
102
RTVSPropertyOp19
 70
     1
102
RTVSPropertyOp20
 70
     1
102
RTVSPropertyOp21
 70
     1
102
RTVSPropertyOp22
 70
     1
102
RTVSPropertyOp23
 70
     1
102
RTVSPropertyOp24
 70
     1
102
RTVSPropertyOp25
 70
     1
102
RTVSPropertyOp26
 70
     1
102
RTVSPropertyOp27
 70
     1
102
RTVSPropertyOp28
 70
     1
102
RTVSPropertyOp29
 70
     1
102
RTVSPropertyOp30
 70
     1
102
RTVSPropertyOp31
 70
     1
102
RTVSPropertyOp32
 70
     1
102
RTVSPropertyOp33
 70
     1
102
RTVSPropertyOp34
 70
     1
102
RTVSPropertyOp35
 70
     1
102
RTVSPropertyOp36
 70
     1
102
RTVSPropertyOp37
 70
     1
102
RTVSPropertyOp38
 70
     1
102
RTVSPropertyOp39
 70
     1
102
RTVSPropertyOp40
 70
     1
102
RTVSPropertyOp41
 70
     1
102
RTVSPropertyOp42
 70
     1
102
RTVSPropertyOp43
 70
     1
102
RTVSPropertyOp44
 70
     1
102
RTVSPropertyOp45
 70
     1
102
RTVSPropertyOp46
 70
     1
102
RTVSPropertyOp47
 70
     1
102
RTVSPropertyOp48
 70
     1
102
RTVSPropertyOp49
 70
     1
102
RTVSPropertyOp50
 70
     1
102
RTVSPropertyOp51
 70
     0
102
RTVSPropertyOp52
 70
     0
102
RTVSPropertyOp53
 70
     1
102
RTVSPropertyOp54
 70
     1
102
RTVSPropertyOp55
 70
     1
102
RTVSPropertyOp56
 70
     1
102
RTVSPropertyOp57
 70
     1
102
RTVSPropertyOp58
 70
     1
102
RTVSPropertyOp59
 70
     1
102
RTVSPropertyOp60
 70
     1
102
RTVSPropertyOp61
 70
     1
102
RTVSPropertyOp62
 70
     1
  0
XRECORD
  5
52A6
102
{ACAD_REACTORS
330
52A5
102
}
330
52A5
100
AcDbXrecord
280
     1
102
RTVSPost2010Prop28
280
     0
102
RTVSPost2010PropOp28
 70
     1
102
RTVSPost2010Prop29
280
     1
102
RTVSPost2010PropOp29
 70
     1
102
RTVSPost2010Prop30
280
     1
102
RTVSPost2010PropOp30
 70
     1
102
RTVSPost2010Prop31
280
     0
102
RTVSPost2010PropOp31
 70
     1
102
RTVSPost2010Prop32
280
     0
102
RTVSPost2010PropOp32
 70
     1
102
RTVSPost2010Prop33
280
     0
102
RTVSPost2010PropOp33
 70
     1
102
RTVSPost2010Prop34
280
     0
102
RTVSPost2010PropOp34
 70
     1
102
RTVSPost2010Prop35
280
     0
102
RTVSPost2010PropOp35
 70
     1
102
RTVSPost2010Prop36
280
     0
102
RTVSPost2010PropOp36
 70
     1
102
RTVSPost2010Prop37
 90
       50
102
RTVSPost2010PropOp37
 70
     1
102
RTVSPost2010Prop38
140
0.0
102
RTVSPost2010PropOp38
 70
     1
102
RTVSPost2010Prop39
140
1.0
102
RTVSPost2010PropOp39
 70
     1
102
RTVSPost2010Prop40
 90
        0
102
RTVSPost2010PropOp40
 70
     1
102
RTVSPost2010Prop41ColorIndex
 90
       18
102
RTVSPost2010Prop41ColorRGB
 90
        0
102
RTVSPost2010PropOp41
 70
     1
102
RTVSPost2010Prop42
 90
       50
102
RTVSPost2010PropOp42
 70
     1
102
RTVSPost2010Prop43
 90
        3
102
RTVSPost2010PropOp43
 70
     1
102
RTVSPost2010Prop44ColorIndex
 90
        5
102
RTVSPost2010Prop44ColorRGB
 90
      255
102
RTVSPost2010PropOp44
 70
     1
102
RTVSPost2010Prop45
280
     0
102
RTVSPost2010PropOp45
 70
     1
102
RTVSPost2010Prop46
 90
       50
102
RTVSPost2010PropOp46
 70
     1
102
RTVSPost2010Prop47
 90
       50
102
RTVSPost2010PropOp47
 70
     1
102
RTVSPost2010Prop48
 90
       50
102
RTVSPost2010PropOp48
 70
     1
102
RTVSPost2010Prop49
280
     0
102
RTVSPost2010PropOp49
 70
     1
102
RTVSPost2010Prop50
 90
       50
102
RTVSPost2010PropOp50
 70
     1
102
RTVSPost2010Prop51ColorIndex
 90
      256
102
RTVSPost2010Prop51ColorRGB
 90
-16777216
102
RTVSPost2010PropOp51
 70
     0
102
RTVSPost2010Prop52
140
1.0
102
RTVSPost2010PropOp52
 70
     0
102
RTVSPost2010Prop53
 90
        2
102
RTVSPost2010PropOp53
 70
     1
102
RTVSPost2010Prop54
  1
strokes_ogs.tif
102
RTVSPost2010PropOp54
 70
     1
102
RTVSPost2010Prop55
280
     0
102
RTVSPost2010PropOp55
 70
     1
102
RTVSPost2010Prop56
140
1.0
102
RTVSPost2010PropOp56
 70
     1
102
RTVSPost2010Prop57
140
1.0
102
RTVSPost2010PropOp57
 70
     1
102
RTVSPropertyOp0
 70
     1
102
RTVSPropertyOp1
 70
     1
102
RTVSPropertyOp2
 70
     1
102
RTVSPropertyOp3
 70
     1
102
RTVSPropertyOp4
 70
     1
102
RTVSPropertyOp5
 70
     1
102
RTVSPropertyOp6
 70
     1
102
RTVSPropertyOp7
 70
     1
102
RTVSPropertyOp8
 70
     1
102
RTVSPropertyOp9
 70
     1
102
RTVSPropertyOp10
 70
     1
102
RTVSPropertyOp11
 70
     1
102
RTVSPropertyOp12
 70
     1
102
RTVSPropertyOp13
 70
     1
102
RTVSPropertyOp14
 70
     1
102
RTVSPropertyOp15
 70
     1
102
RTVSPropertyOp16
 70
     1
102
RTVSPropertyOp17
 70
     1
102
RTVSPropertyOp18
 70
     1
102
RTVSPropertyOp19
 70
     1
102
RTVSPropertyOp20
 70
     1
102
RTVSPropertyOp21
 70
     1
102
RTVSPropertyOp22
 70
     1
102
RTVSPropertyOp23
 70
     1
102
RTVSPropertyOp24
 70
     1
102
RTVSPropertyOp25
 70
     1
102
RTVSPropertyOp26
 70
     1
102
RTVSPropertyOp27
 70
     1
102
RTVSPropertyOp28
 70
     1
102
RTVSPropertyOp29
 70
     1
102
RTVSPropertyOp30
 70
     1
102
RTVSPropertyOp31
 70
     1
102
RTVSPropertyOp32
 70
     1
102
RTVSPropertyOp33
 70
     1
102
RTVSPropertyOp34
 70
     1
102
RTVSPropertyOp35
 70
     1
102
RTVSPropertyOp36
 70
     1
102
RTVSPropertyOp37
 70
     1
102
RTVSPropertyOp38
 70
     1
102
RTVSPropertyOp39
 70
     1
102
RTVSPropertyOp40
 70
     1
102
RTVSPropertyOp41
 70
     1
102
RTVSPropertyOp42
 70
     1
102
RTVSPropertyOp43
 70
     1
102
RTVSPropertyOp44
 70
     1
102
RTVSPropertyOp45
 70
     1
102
RTVSPropertyOp46
 70
     1
102
RTVSPropertyOp47
 70
     1
102
RTVSPropertyOp48
 70
     1
102
RTVSPropertyOp49
 70
     1
102
RTVSPropertyOp50
 70
     1
102
RTVSPropertyOp51
 70
     0
102
RTVSPropertyOp52
 70
     0
102
RTVSPropertyOp53
 70
     1
102
RTVSPropertyOp54
 70
     1
102
RTVSPropertyOp55
 70
     1
102
RTVSPropertyOp56
 70
     1
102
RTVSPropertyOp57
 70
     1
102
RTVSPropertyOp58
 70
     1
102
RTVSPropertyOp59
 70
     1
102
RTVSPropertyOp60
 70
     1
102
RTVSPropertyOp61
 70
     1
102
RTVSPropertyOp62
 70
     1
  0
XRECORD
  5
529A
102
{ACAD_REACTORS
330
5299
102
}
330
5299
100
AcDbXrecord
280
     1
102
RTVSPost2010Prop28
280
     0
102
RTVSPost2010PropOp28
 70
     1
102
RTVSPost2010Prop29
280
     1
102
RTVSPost2010PropOp29
 70
     1
102
RTVSPost2010Prop30
280
     1
102
RTVSPost2010PropOp30
 70
     1
102
RTVSPost2010Prop31
280
     0
102
RTVSPost2010PropOp31
 70
     1
102
RTVSPost2010Prop32
280
     0
102
RTVSPost2010PropOp32
 70
     1
102
RTVSPost2010Prop33
280
     0
102
RTVSPost2010PropOp33
 70
     1
102
RTVSPost2010Prop34
280
     0
102
RTVSPost2010PropOp34
 70
     1
102
RTVSPost2010Prop35
280
     0
102
RTVSPost2010PropOp35
 70
     1
102
RTVSPost2010Prop36
280
     0
102
RTVSPost2010PropOp36
 70
     1
102
RTVSPost2010Prop37
 90
       50
102
RTVSPost2010PropOp37
 70
     1
102
RTVSPost2010Prop38
140
0.0
102
RTVSPost2010PropOp38
 70
     1
102
RTVSPost2010Prop39
140
1.0
102
RTVSPost2010PropOp39
 70
     1
102
RTVSPost2010Prop40
 90
        0
102
RTVSPost2010PropOp40
 70
     1
102
RTVSPost2010Prop41ColorIndex
 90
       18
102
RTVSPost2010Prop41ColorRGB
 90
        0
102
RTVSPost2010PropOp41
 70
     1
102
RTVSPost2010Prop42
 90
       50
102
RTVSPost2010PropOp42
 70
     1
102
RTVSPost2010Prop43
 90
        3
102
RTVSPost2010PropOp43
 70
     1
102
RTVSPost2010Prop44ColorIndex
 90
        5
102
RTVSPost2010Prop44ColorRGB
 90
      255
102
RTVSPost2010PropOp44
 70
     1
102
RTVSPost2010Prop45
280
     0
102
RTVSPost2010PropOp45
 70
     1
102
RTVSPost2010Prop46
 90
       50
102
RTVSPost2010PropOp46
 70
     1
102
RTVSPost2010Prop47
 90
       50
102
RTVSPost2010PropOp47
 70
     1
102
RTVSPost2010Prop48
 90
       50
102
RTVSPost2010PropOp48
 70
     1
102
RTVSPost2010Prop49
280
     0
102
RTVSPost2010PropOp49
 70
     1
102
RTVSPost2010Prop50
 90
       50
102
RTVSPost2010PropOp50
 70
     1
102
RTVSPost2010Prop51ColorIndex
 90
      256
102
RTVSPost2010Prop51ColorRGB
 90
-16777216
102
RTVSPost2010PropOp51
 70
     0
102
RTVSPost2010Prop52
140
1.0
102
RTVSPost2010PropOp52
 70
     0
102
RTVSPost2010Prop53
 90
        2
102
RTVSPost2010PropOp53
 70
     1
102
RTVSPost2010Prop54
  1
strokes_ogs.tif
102
RTVSPost2010PropOp54
 70
     1
102
RTVSPost2010Prop55
280
     0
102
RTVSPost2010PropOp55
 70
     1
102
RTVSPost2010Prop56
140
1.0
102
RTVSPost2010PropOp56
 70
     1
102
RTVSPost2010Prop57
140
1.0
102
RTVSPost2010PropOp57
 70
     1
102
RTVSPropertyOp0
 70
     1
102
RTVSPropertyOp1
 70
     1
102
RTVSPropertyOp2
 70
     1
102
RTVSPropertyOp3
 70
     1
102
RTVSPropertyOp4
 70
     1
102
RTVSPropertyOp5
 70
     1
102
RTVSPropertyOp6
 70
     1
102
RTVSPropertyOp7
 70
     1
102
RTVSPropertyOp8
 70
     1
102
RTVSPropertyOp9
 70
     1
102
RTVSPropertyOp10
 70
     1
102
RTVSPropertyOp11
 70
     1
102
RTVSPropertyOp12
 70
     1
102
RTVSPropertyOp13
 70
     1
102
RTVSPropertyOp14
 70
     1
102
RTVSPropertyOp15
 70
     1
102
RTVSPropertyOp16
 70
     1
102
RTVSPropertyOp17
 70
     1
102
RTVSPropertyOp18
 70
     1
102
RTVSPropertyOp19
 70
     1
102
RTVSPropertyOp20
 70
     1
102
RTVSPropertyOp21
 70
     1
102
RTVSPropertyOp22
 70
     1
102
RTVSPropertyOp23
 70
     1
102
RTVSPropertyOp24
 70
     1
102
RTVSPropertyOp25
 70
     1
102
RTVSPropertyOp26
 70
     1
102
RTVSPropertyOp27
 70
     1
102
RTVSPropertyOp28
 70
     1
102
RTVSPropertyOp29
 70
     1
102
RTVSPropertyOp30
 70
     1
102
RTVSPropertyOp31
 70
     1
102
RTVSPropertyOp32
 70
     1
102
RTVSPropertyOp33
 70
     1
102
RTVSPropertyOp34
 70
     1
102
RTVSPropertyOp35
 70
     1
102
RTVSPropertyOp36
 70
     1
102
RTVSPropertyOp37
 70
     1
102
RTVSPropertyOp38
 70
     1
102
RTVSPropertyOp39
 70
     1
102
RTVSPropertyOp40
 70
     1
102
RTVSPropertyOp41
 70
     1
102
RTVSPropertyOp42
 70
     1
102
RTVSPropertyOp43
 70
     1
102
RTVSPropertyOp44
 70
     1
102
RTVSPropertyOp45
 70
     1
102
RTVSPropertyOp46
 70
     1
102
RTVSPropertyOp47
 70
     1
102
RTVSPropertyOp48
 70
     1
102
RTVSPropertyOp49
 70
     1
102
RTVSPropertyOp50
 70
     1
102
RTVSPropertyOp51
 70
     0
102
RTVSPropertyOp52
 70
     0
102
RTVSPropertyOp53
 70
     1
102
RTVSPropertyOp54
 70
     1
102
RTVSPropertyOp55
 70
     1
102
RTVSPropertyOp56
 70
     1
102
RTVSPropertyOp57
 70
     1
102
RTVSPropertyOp58
 70
     1
102
RTVSPropertyOp59
 70
     1
102
RTVSPropertyOp60
 70
     1
102
RTVSPropertyOp61
 70
     1
102
RTVSPropertyOp62
 70
     1
  0
XRECORD
  5
52B2
102
{ACAD_REACTORS
330
52B1
102
}
330
52B1
100
AcDbXrecord
280
     1
102
RTVSPost2010Prop28
280
     0
102
RTVSPost2010PropOp28
 70
     1
102
RTVSPost2010Prop29
280
     1
102
RTVSPost2010PropOp29
 70
     1
102
RTVSPost2010Prop30
280
     1
102
RTVSPost2010PropOp30
 70
     1
102
RTVSPost2010Prop31
280
     0
102
RTVSPost2010PropOp31
 70
     1
102
RTVSPost2010Prop32
280
     0
102
RTVSPost2010PropOp32
 70
     1
102
RTVSPost2010Prop33
280
     0
102
RTVSPost2010PropOp33
 70
     1
102
RTVSPost2010Prop34
280
     0
102
RTVSPost2010PropOp34
 70
     1
102
RTVSPost2010Prop35
280
     0
102
RTVSPost2010PropOp35
 70
     1
102
RTVSPost2010Prop36
280
     0
102
RTVSPost2010PropOp36
 70
     1
102
RTVSPost2010Prop37
 90
       50
102
RTVSPost2010PropOp37
 70
     1
102
RTVSPost2010Prop38
140
0.0
102
RTVSPost2010PropOp38
 70
     1
102
RTVSPost2010Prop39
140
1.0
102
RTVSPost2010PropOp39
 70
     1
102
RTVSPost2010Prop40
 90
        0
102
RTVSPost2010PropOp40
 70
     1
102
RTVSPost2010Prop41ColorIndex
 90
       18
102
RTVSPost2010Prop41ColorRGB
 90
        0
102
RTVSPost2010PropOp41
 70
     1
102
RTVSPost2010Prop42
 90
       50
102
RTVSPost2010PropOp42
 70
     1
102
RTVSPost2010Prop43
 90
        3
102
RTVSPost2010PropOp43
 70
     1
102
RTVSPost2010Prop44ColorIndex
 90
        5
102
RTVSPost2010Prop44ColorRGB
 90
      255
102
RTVSPost2010PropOp44
 70
     1
102
RTVSPost2010Prop45
280
     0
102
RTVSPost2010PropOp45
 70
     1
102
RTVSPost2010Prop46
 90
       50
102
RTVSPost2010PropOp46
 70
     1
102
RTVSPost2010Prop47
 90
       50
102
RTVSPost2010PropOp47
 70
     1
102
RTVSPost2010Prop48
 90
       50
102
RTVSPost2010PropOp48
 70
     1
102
RTVSPost2010Prop49
280
     0
102
RTVSPost2010PropOp49
 70
     1
102
RTVSPost2010Prop50
 90
       50
102
RTVSPost2010PropOp50
 70
     1
102
RTVSPost2010Prop51ColorIndex
 90
      256
102
RTVSPost2010Prop51ColorRGB
 90
-16777216
102
RTVSPost2010PropOp51
 70
     0
102
RTVSPost2010Prop52
140
1.0
102
RTVSPost2010PropOp52
 70
     0
102
RTVSPost2010Prop53
 90
        2
102
RTVSPost2010PropOp53
 70
     1
102
RTVSPost2010Prop54
  1
strokes_ogs.tif
102
RTVSPost2010PropOp54
 70
     1
102
RTVSPost2010Prop55
280
     0
102
RTVSPost2010PropOp55
 70
     1
102
RTVSPost2010Prop56
140
1.0
102
RTVSPost2010PropOp56
 70
     1
102
RTVSPost2010Prop57
140
1.0
102
RTVSPost2010PropOp57
 70
     1
102
RTVSPropertyOp0
 70
     1
102
RTVSPropertyOp1
 70
     1
102
RTVSPropertyOp2
 70
     1
102
RTVSPropertyOp3
 70
     1
102
RTVSPropertyOp4
 70
     1
102
RTVSPropertyOp5
 70
     1
102
RTVSPropertyOp6
 70
     1
102
RTVSPropertyOp7
 70
     1
102
RTVSPropertyOp8
 70
     1
102
RTVSPropertyOp9
 70
     1
102
RTVSPropertyOp10
 70
     1
102
RTVSPropertyOp11
 70
     1
102
RTVSPropertyOp12
 70
     1
102
RTVSPropertyOp13
 70
     1
102
RTVSPropertyOp14
 70
     1
102
RTVSPropertyOp15
 70
     1
102
RTVSPropertyOp16
 70
     1
102
RTVSPropertyOp17
 70
     1
102
RTVSPropertyOp18
 70
     1
102
RTVSPropertyOp19
 70
     1
102
RTVSPropertyOp20
 70
     1
102
RTVSPropertyOp21
 70
     1
102
RTVSPropertyOp22
 70
     1
102
RTVSPropertyOp23
 70
     1
102
RTVSPropertyOp24
 70
     1
102
RTVSPropertyOp25
 70
     1
102
RTVSPropertyOp26
 70
     1
102
RTVSPropertyOp27
 70
     1
102
RTVSPropertyOp28
 70
     1
102
RTVSPropertyOp29
 70
     1
102
RTVSPropertyOp30
 70
     1
102
RTVSPropertyOp31
 70
     1
102
RTVSPropertyOp32
 70
     1
102
RTVSPropertyOp33
 70
     1
102
RTVSPropertyOp34
 70
     1
102
RTVSPropertyOp35
 70
     1
102
RTVSPropertyOp36
 70
     1
102
RTVSPropertyOp37
 70
     1
102
RTVSPropertyOp38
 70
     1
102
RTVSPropertyOp39
 70
     1
102
RTVSPropertyOp40
 70
     1
102
RTVSPropertyOp41
 70
     1
102
RTVSPropertyOp42
 70
     1
102
RTVSPropertyOp43
 70
     1
102
RTVSPropertyOp44
 70
     1
102
RTVSPropertyOp45
 70
     1
102
RTVSPropertyOp46
 70
     1
102
RTVSPropertyOp47
 70
     1
102
RTVSPropertyOp48
 70
     1
102
RTVSPropertyOp49
 70
     1
102
RTVSPropertyOp50
 70
     1
102
RTVSPropertyOp51
 70
     0
102
RTVSPropertyOp52
 70
     0
102
RTVSPropertyOp53
 70
     1
102
RTVSPropertyOp54
 70
     1
102
RTVSPropertyOp55
 70
     1
102
RTVSPropertyOp56
 70
     1
102
RTVSPropertyOp57
 70
     1
102
RTVSPropertyOp58
 70
     1
102
RTVSPropertyOp59
 70
     1
102
RTVSPropertyOp60
 70
     1
102
RTVSPropertyOp61
 70
     1
102
RTVSPropertyOp62
 70
     1
  0
ENDSEC
  0
EOF
